Guitar Tabs, Chords and Lyrics
Major upgrade!! After one year development the new version of Chordie is now online! Please give feedback.


Ring of Fire  Johnny Cash

 
 ----------------------------------------------------------------------------

Ring of Fire by Johnny Cash
Walk The Line Version
w/ Joaquin Pheonix
 
 ----------------------------------------------------------------------------

Tabbed by: Casino Lover 117
Email:
Tuning: Standard
m=palm mute
Intro
 
 e|--------------------------------|
 B|--------------------------------|
 G|--------------------------------|
 D|----222-22-4-0-2--------0-------|
 A|-----------------444-44---2-4---|
 E|--------------------------------|

Chords:
[A]Love is a [D]burnin' [A]thing
And it m[A]akes a [D]firery [A]ring
[A]Bound, by[D] wild[A] desire
[A]I fell into a [D]ring of [A]fire
Chorus:
[E]I fell into a [D]burnin' ring of [A]fire
I went [E]down down down, and the [D]flames went [A]higher
And it [A]burns burns burns
The [D]ring of [A]fire, the [D]ring of [A]fire
Solo
 
 e|---------------------------------|--------------------------------|
 B|---------------------------------|--------------------------------|
 G|---------------------------------|--------------------------------|
 D|---0-1-222-22-4-0-2--------0-----|--0-1-222-22-4-0-2--------------|
 A|--4-----------------444-44---2-4-|-4-----------------444-44-2---0-|
 E|---------------------------------|----------------------------4---|

Chorus:
[E]I fell into a [D]burnin' ring of [A]fire
I went [E]down down down, and the [D]flames went [A]higher
And it [A]burns burns burns
The [D]ring of [A]fire, the [D]ring of [A]fire
The [A]taste of [D]love is [A]sweet
when [A]hearts like [D]ours [A]meet
[A]i fell for you [D]like a [A]child
[A]oh but the [D]fire went [A]wild
Chorus:X2
[E]I fell into a [D]burnin' ring of [A]fire
I went [E]down down down, and the [D]flames went [A]higher
And it [A]burns burns burns
The [D]ring of [A]fire, the [D]ring of [A]fire
Outro:
 
 |--------------------------------------------|
 |--------------------------------------------|
 |--------------------------------------------|
 |---2m---2m----2m---2m----2m---2m----2m---2m-|
 |-0----------0----------0----------0---------|
 |------0----------0----------0----------0----|
 |--------------------------------------|
 |--------------------------------------|
 |--------------------------------------|
 |--------2--------2---------2--------2-|
 |-0---/4---0---/4----0---/4---0---/4---|
 |--------------------------------------|

D A D A D A Let Ring.
 
 |-2--0-----2--0-----2--0-------|
 |-3--2-----3--2-----3--2-------|
 |-2--2-----2--2-----2--2-------|
 |-0--2-----0--2-----0--2-------|
 |----0--------0--------0-------|
 |------------------------------|

"...Steady Like a Train Sharp Like a Razor."
Johnny Cash is My Favorite Singer Since I Was Little
 
 -------------------------Casino-Lover-117-----------------------------------


Important: The song above is NOT stored on the Chordie server. The original song is hosted at www.guitaretab.com. Chordie works as a search engine and provides on-the-fly formatting. Chordie does not index songs against artists'/composers' will. To remove this song please click here.

Text color:
Chord color:
Chord grids: 
Font size:    
Page size: 

A D E
Rate #3 of 17 versions

Jango Player

Login - add to songbook

SHARE PAGE  




You need to log in to post comments