Guitar Tabs, Chords and Lyrics
Login is temporarily disabled for some users. Do not panic. Will be back in an hour or two. DO NOT REREGISTER!!


There You Go  Johnny Cash

You're gonna [F#]break another heart you're gonna [E]tell another [B]lie
[B]  
 
 e|----------------------------------|
 B|----------------------------------|
 G|----------------------------------|
 D|----------------------------------|
 A|-6-6-6-4-6-4-6-4-6-4-5-2-4-2-4-2--|
 E|----------------------------------|

Well [B]here I am and [E]there you go, you're[F#] gone aga[B]in
I [B]know you're gonna [E]be the way you've [F#]always [B]been
[E]Breakin' hearts and [B]tellin' lies is [F#]all you [B]know
A[B]nother guy gives [E]you the eye and[F#] there you go[B]
[B]There you [E]go
You're gone a[B]gain
I should have [F#]known
I couldn't [B]win
There you [E]go
You're by his s[B]ide
You're gonna [F#]break another heart
You're gonna [E]tell another [B]lie
(Solo)
 
 e|-----------------------------------|
 B|-----------------------------------|
 G|-----------------------------------|
 D|-----------------------------------|
 A|-4-6-6-6-6-6--7-7-7-7-7--4-6-2-----|
 E|-----------------------------------|
 e|-----------------------------------|
 B|-----------------------------------|
 G|-----------------------------------|
 D|-----------------------------------|
 A|-4-6-6-6-6-6--7-7-7-7-7--4-6-2-----|
 E|-----------------------------------|
 e|-----------------------------------|
 B|-----------------------------------|
 G|-----------------------------------|
 D|-4-6-6-6-6-6--4-4-4-4-4--2-4-------|
 A|-----------------------------7-----|
 E|-----------------------------------|
 e|-----------------------------------|
 B|-----------------------------------|
 G|-----------------------------------|
 D|-----------------------------------|
 A|-4-6-6-6-6-6--7-7-7-7-7--4-6-2-----|
 E|-----------------------------------|

[B]  
 
 e|-----------------------------------|
 B|-----------------------------------|
 G|-----------------------------------|
 D|-----------------------------------|
 A|-6-6-6-4-6-4-6-4-6-4-5-2-4-2-4-2---|
 E|-----------------------------------|

Be[B]cause I love you [E]so I take much [F#]more than I should [B]take
I [B]want you even [E]though I know my [F#]heart is gonna [B]break
You [E]built me up and [B]for a while I'm [F#]all a-[B]glow
Then your [B]fickle heart sees [E]someone else and[F#] there you [B]go
[B]There you [E]go
You're gone a[B]gain
I should have [F#]known
I couldn't [B]win
There you [E]go
You're by his s[B]ide
You're gonna [F#]break another heart
You're gonna [E]tell another [B]lie
 
 e|-----------------------------------|
 B|-----------------------------------|
 G|-----------------------------------|
 D|-----------------------------------|
 A|-6-6-6-4-6-4-6-4-6-4-5-2-4-2-4-2---|
 E|-----------------------------------|
 -------------------------------------------

Let me know what you think!
Have fun
weilo

Important: The song above is NOT stored on the Chordie server. The original song is hosted at www.guitaretab.com. Chordie works as a search engine and provides on-the-fly formatting. Chordie does not index songs against artists'/composers' will. To remove this song please click here.

Text color:
Chord color:
Chord grids: 
Font size:    
Page size: 

B E F#
Rate #1 of 7 versions

Jango Player

Login - add to songbook

SHARE PAGE  




You need to log in to post comments