Guitar Tabs, Chords and Lyrics
Major upgrade!! After one year development the new version of Chordie is now online! Please give feedback.


Get Rhythm   Johnny Cash

 
 E------------------12--12-------------|
 B---------------12--------12----------|
 G-----------13------------------------|
 D-------------------------------------|
 A-------------------------------------|
 E-------------------------------------|

 


 


 Acoustic switches to (A)


 


 

 
 E------------------5--5-------------|
 B---------------5--------6----------|
 G-----------6-----------------------|
 D-----------------------------------|
 A-----------------------------------|
 E-----------------------------------|

 


 


 Acoustic back to (Em)


 


 

 
 E--------------------------------------------------------|
 B--------------------------------------------------------|
 G--------------------------------------------------------|
 D-2-2-2-4-2-2-2-4-2-2-2-4-2-2-2-4-4-5-4-4-2--------------|
 A-------------------------------------------4-4-2-2------|
 E--------------------------------------------------4-4-0-|

 


 


 Acoustic switches back to (A)


 


 

 
 E---------------------------------------------------------|
 B---------------------------------------------------------|
 G---------------------------------------------------------|
 D-2-2-2-4-2-2-2-4-2-2-2-4-2-2-2-4-4-5-4-4-2---------------|
 A-------------------------------------------4-4-2-2-------|
 E---------------------------------------------------4-4-0-|


Important: The song above is NOT stored on the Chordie server. The original song is hosted at www.guitaretab.com. Chordie works as a search engine and provides on-the-fly formatting. Chordie does not index songs against artists'/composers' will. To remove this song please click here.

This song is displayed as text-only. Transposing and tuning is only available for chordpro-songs.
Rate #1 of 2 versions

Jango Player

Login - add to songbook

SHARE PAGE  




You need to log in to post comments