Guitar Tabs, Chords and Lyrics
Server problems seems to be fixed. Chordie has been experiencing problems with songs disappearing. These issues now seems to be fixed, but still verifying the fix. If you find anything strange, please email admin@chordie.com.


What's the Point  Johnossi

Johnossi - what's the point
Tabbed by: marreboy
[B]  
 
 e-|----------------------------------------|
 B-|-------7--7-9-7-------------------------|
 G-|------8---------9-8-6-6-8-6-4-----------|
 D-|-----9----------------------------------|
 A-|----9-----------------------------------|
 E-|---7------------------------------------|

[B] [B]  
 
 e-|------------------------------------------|
 B-|--------7-7-7----------7-7-7--------------|
 G-|-------8------8-------8------9-8----------|
 D-|------9--------------9--------------------|
 A-|-----9--------------9---------------------|
 E-|----7--------------7----------------------|

[Abm] [E] [F#]  
 
 e-|--4--4-4---------------2-2-2--------------------|
 B-|--4-----4-----12-12----2-2-2--------------------|
 G-|--4-----------13-13----3-3-3--------------------|
 D-|--6--------------------4-4-4--------------------|
 A-|--6--------------------4-4-4--------------------|
 E-|--4--------------------2-2-2--------------------|

Verse:
[B]Where do we go when we go from [Abm]here[F#]
[B]Feels like a circle around me while I wait for[Abm] more[F#]
[B]Know that I wanna know where I follow [Abm]you[F#]
[B]Don't wanna go dnow the street where you once came [Abm]from
And [F#]I wanna know
Chorus:
[B]What's the point of doing anything
[B]If you'll never [Abm]notice
I would sit and [Ebm]wait for you [F#]again
[B]A line of boxes in an open [Abm]field[F#]
[B]There's a million empty and there's one for [Abm]real[F#]
[B]Do you want me to go search in each all of [Abm]them[F#]
[B]Or just lay on the grass and act and [Abm]pretend
That's what I wan[F#]na know
Chorus:
[B]What's the point of doing anything
[B]If you'll never [Abm]notice
I would sit and [Ebm]wait for you [F#]again x2
Bridge:
[Abm] [A] [B]  
[Abm] [A] [B]  
[A]Then you [B]came to me and you [E]said
I was not [C#m]really sure [F#]enough how to[B] feel
I [A]pretend like you're not [B]real
[A]Then you [B]came to me and you [E]said
I was not [C#m]really sure [F#]enough how to[B] feel
To [A]pretend like you're not [B]real to [E]me
[B] What's the point
[B] What's the point
[B]What's the point of doing anything
[B]If you'll never [Abm]notice
I would sit and [Ebm]wait for you [F#]again x2

Important: The song above is NOT stored on the Chordie server. The original song is hosted at www.guitaretab.com. Chordie works as a search engine and provides on-the-fly formatting. Chordie does not index songs against artists'/composers' will. To remove this song please click here.

Text color:
Chord color:
Chord grids: 
Font size:    
Page size: 

A Abm B C#m E Ebm F#
Rate #2 of 9 versions

Login - add to songbook

SHARE PAGE  




You need to log in to post comments