Guitar Tabs, Chords and Lyrics
Server problems seems to be fixed. Chordie has been experiencing problems with songs disappearing. These issues now seems to be fixed, but still verifying the fix. If you find anything strange, please email admin@chordie.com.


Want You Gone  Jonathan Coulton

Capo on 2nd Fret
All chords relative to Capo -- Tabs are NOT relative to Capo
Standard Tuning
Intro/verse(Capo NOT accounted for ie: the 2 on the G string is open when capo'd, etc.)
[G] [C]  
 
 e----------------------------------------|
 B----5---5---4--------3---3---6----------|
 G--2---2---2--------2---2---2------------|
 D----------------------------------------|
 A----------------------------------------|
 E----------------------------------------|

[G] [D]  
 
 e----------------------------------------|
 B----5---5---4--------3---3---6----------|
 G--2---2---2--------2---2---2------------|
 D----------------------------------------|
 A----------------------------------------|
 E----------------------------------------|

Verse with riff
[G] [C]  
 
 e----------------------------------------|
 B----5---5---4--------3---3---6----------|
 G--2---2---2--------2---2---2------------|
 D----------------------------------------|
 A----------------------------------------|
 E----------------------------------------|

[G] [D]  
 
 e----------------------------------------|
 B----5---5---4--------3---3--------------|
 G--2---2---2--------2---2---------------4|
 D---------------------------2-2-2-2-4-6--|
 A----------------------------------------|
 E----------------------------------------|

listen to song for strum patterns
Full Song:
[G](intro)[C]
[G](intro)[D]
[G]Well here we are again,[C]
[G]It's always such a pleas[D]ure,
G C G D(riff)
Remember when you tried to kill me twice?
[G]Oh, how we laughed and l[C]aughed,
[G]Except I wasn't laughing[D],
[G]Under the circumstances [C]I've been shockin[G]gly nice.[B]
[E] [A] You want your fr[E]eedom take it,[A]
[E] [A] That's what I'm [E]counting on,[A]
[E] [A] I used to want [E]you dead but,[A]
[C]Now I only want you gone[D].
[G](instrumental)[C]
[G](instrumental)[D]
[G]She was a lot like you,[C]
[G](Maybe not quite as heav[D]y),
G C G D(riff)
Now little Caroline is in here too.
[G]One day they woke me up,[C]
[G]So I could live forever,[D]
[G]It's such a shame the sa[C]me will never hap[G]pen to you.[B]
[E] [A] You've got your [E]short, sad life [A]left,
[E] [A] That's what I'm [E]counting on,[A]
[E] [A] I'll let you ge[E]t right to it,[A]
[C]Now I only want you gone[D].
[G](instrumental)[C]
[G](instrumental)[D]
[G]Goodbye, my only friend,[C]
x x
Oh, did you think I meant you?
G C G D (riff)
That would be funny if it weren't so sad,
[G]Well you have been repla[C]ced,
[G]I don't need anyone now,[D]
[G]When I delete you maybe [C]I'll stop feeling[G] so bad.[B]
[E] [A]Go make some new [E]disaster,[A]
[E] [A]That's what I'm c[E]ounting on,[A]
[E] [A]You're someone el[E]se's problem,[A]
[C]Now I only want you gon[D]e.[G] [Em]
[C]Now, I only want you go[D]ne.[G] [Em]
C D G~
Now, I only want you gone.

Important: The song above is NOT stored on the Chordie server. The original song is hosted at www.guitaretab.com. Chordie works as a search engine and provides on-the-fly formatting. Chordie does not index songs against artists'/composers' will. To remove this song please click here.

Text color:
Chord color:
Chord grids: 
Font size:    
Page size: 

A B C D E Em G
Rate #2 of 24 versions

Jango Player

Login - add to songbook

SHARE PAGE  




You need to log in to post comments