Guitar Tabs, Chords and Lyrics
Server problems seems to be fixed. Chordie has been experiencing problems with songs disappearing. These issues now seems to be fixed, but still verifying the fix. If you find anything strange, please email admin@chordie.com.


Millionaire Girlfriend  Jonathan Coulton

Just brought over from JoCopedia for use with the Tab app. Tablature transcribed
by Alden Chew, revised by Suuuupaadave.
Chords
Cadd9 x30030
G/B x20030
A#6 x1003x
Am7 x02010
G 3x0003
C/G 3x201x
D xx0232
C x32010
Am x02210
D#dim7 xx1212
G7/C x3300x
A7 x02020
A7sus4 x02030
D6 xx0202
Intro:
|Cadd9 |G/B |Cadd9 |G/B |Cadd9 G/B|A#6 |Am7 G|
(Verse Break) |G C/G|G C/G|
Verse 1
[G]I will wait a lifetim[C/G]e if it takes that long
[G]I know she's out there for [C/G]I have heard her song
In dreams she [D]sings to me
Her angel's voice a [C]symphony[G/B] [Am] [G]
(Verse Break) |G C/G|G C/G|
[G]Is she in a garde[C/G]n or a meadow fair
[G]Does the dappled sunlight shine [C/G]ribbons in her hair?
Does she sit [D]patiently smiling as she [C]waits for me?[G/B] [Am] [G]
Chorus
[Am]She'[G/B]s my [C]millionaire [G/B]girlfriend and [Am]she's my [G]life
[Am]Onc[G/B]e I [C]finally [G/B]find her I'll get [D]permission from the [D#dim7]wife
We will [Em]all live in our castle [G7/C]high
My be[C]loved [G/B]and my [Am]millionaire [D]girlfriend and [G]I
(Verse Break) |G C/G|G C/G|
Verse 2
[G]She's a stolen secret[C/G] from a pirate's chest
[G]I will wear an ascot and a [C/G]suit that has a vest
And I will [D]put it on as I watch gardener [C]mow the lawn[G/B] [Am] [G]
(Verse Break) |G C/G|G C/G|
[G]She's a fairy princess[C/G] from a song of old
[G]I will have a toothbrush that [C/G]is made of solid gold
And I will [D]watch TV as my manservant [C]flosses me[G/B] [Am] [G]
Chorus
[Am]She'[G/B]s my [C]millionaire [G/B]girlfriend and [Am]she's my [G]life
[Am]Onc[G/B]e I [C]finally [G/B]find her I'll get [D]permission from the [D#dim7]wife
We will [Em]all live in our castle [G7/C]high
My be[C]loved [G/B]and my [Am]millionaire [D]girlfriend and [G]I
Bridge
[Em]It does not matter to me[A7] if she's pretty[A7sus4] [A7]
[Em]All that counts is what she's [A7]got at Cit[A7sus4]ibank[A7]
[CAdd9]Chase Man[G/B]hattan or [Am]even Washington [D]Mutual
(Verse Break) |G C/G|G C/G|
Verse 3
[G]When my search is ended[C/G] I will cherish her
[G]She will sign some papers, give me [C/G]power of attorney
And what's [D]hers will be mine in [C]perpetuity[G/B] [Am] [G]
Chorus
[Am]She'[G/B]s my [C]millionaire [G/B]girlfriend and [Am]she's my [G]life
[Am]Onc[G/B]e I [C]finally [G/B]find her I'll get [D]permission from the [D#dim7]wife
We will [Em]all live in our castle [G7/C]high
My be[C]loved [G/B]and my [Am]millionaire [D]girlfriend and [G]I
My be[C]loved [G/B]and my [Am]millionaire [D]girlfriend and [G]I
My be[C]loved [G/B]and my [Am]millionaire [D]girlfriend and [G]I
Outro
|Cadd9 |G/B |Cadd9 |G/B |Cadd9 G/B|A#6 |Am7 |D D6|G |
Intro:
[Cadd9] [G/B] [Cadd9] [G/B]  
 
 E||----0---------------0-------------|----0---------------0-------------|
 B||------------3---------------3-----|------------3---------------3-----|
 G||--------0-------0-------0-------0-|--------0-------0-------0-------0-|
 D||------0-------0-------0-------0---|------0-------0-------0-------0---|
 A||--3-------3-------2-------2-------|--3-------3-------2-------2-------|
 E||----------------------------------|----------------------------------|

[Cadd9] [G/B] [A#6] [Am7] [G]  
 
 E||----0-----------------------------|----------------------|
 B||------------3-------3-------3-----|----1-------1-----3---|
 G||--------0-------0-------0-------0-|--------0-------0-----|
 D||------0-------0-------0-------0---|------2-------2---0---|
 A||--3-------2-------1-------1-------|--0-------0-----------|
 E||----------------------------------|----------------------|

Verse Riff
[G] [C/G]  
 
 E||----------3----------------------|
 B||-----0----------0h-1-------1-----|
 G||--------------0--------0-------0-|
 D||-----0------0---0h-2-2-------2---|
 A||---------------------------------|
 E||--3-----3-------3--------3-------|

Verse:
[G] [C/G]  
 
 E||----------------------------------|----------------------------------|
 B||----0-------0-------0-------0-----|----1-------1-------1-------1-----|
 G||--------0-------0-------0-------0-|--------0-------0-------0-------0-|
 D||------0-------0-------0-------0---|------2-------2-------2-------2---|
 A||----------------------------------|----------------------------------|
 E||--3-------3-------3-------3-------|--3-------3-------3-------3-------|

[G] [C/G]  
 
 E||----------------------------------|----------------------------------|
 B||----0-------0-------0-------0-----|----1-------1-------1-------1-----|
 G||--------0-------0-------0-------0-|--------0-------0-------0-------0-|
 D||------0-------0-------0-------0---|------2-------2-------2-------2---|
 A||----------------------------------|----------------------------------|
 E||--3-------3-------3-------3-------|--3-------3-------3-------3-------|

[D] [C] [G/B] [Am]  
 
 E||----2-------0-----0h-2-------2-----|--------------------0-------------|
 B||--------3-------3--------3-------0-|----1-------1---------------1-----|
 G||------2-------2--------2-------2---|--------0-------0-------0-------2-|
 D||--0-------0-------0--------0-------|------2-------2-------0-------2---|
 A||-----------------------------------|--3-------3-------2-------0-------|
 E||-----------------------------------|----------------------------------|

Chorus lead in
[G] [C/G] [G] [Am] [G/B]  
 
 E||----------3----------------------|----------3-------------------|
 B||-----0----------0h-1-------1-----|-----0------------0-----1--3--|
 G||--------------0--------0-------0-|--------------0-------0-------|
 D||-----0------0---0h-2-2-------2---|-----0------0-------0---------|
 A||---------------------------------|------------------------0--2--|
 E||--3-----3-------3--------3-------|--3-----3-------3-------------|

Chorus:
[C] [G/B] [Am] [G] [Am] [G/B]  
 
 E||----------------------------------|--------------------------------|
 B||----1-------1-------3-------3-----|----1-------1-------0-----1--3--|
 G||--------0-------0-------0-------0-|--------2-------2-------0-------|
 D||------2-------2-------0-------0---|------2-------2-------0---------|
 A||--3-------3-------2-------2-------|--0-------0---------------0--2--|
 E||----------------------------------|------------------3-------------|

[C] [G/B] [D] [D#dim7]  
 
 E||----------------------------------|----2-------2-------2-------2-----|
 B||----1-------1-------3-------3-----|--------3-------3-------1-------1-|
 G||--------0-------0-------0-------0-|------2-------2-------2-------2---|
 D||------2-------2-------0-------0---|--0-------0-------1-------1-------|
 A||--3-------3-------2-------2-------|----------------------------------|
 E||----------------------------------|----------------------------------|

[Em] [G7/C]  
 
 E||----------------------------------|----------------------------------|
 B||----0-------0-------0-------0-----|----0-------0-------0-------0-----|
 G||--------0-------0-------0-------0-|--------0-------0-------0-------0-|
 D||------2-------2-------2-------2---|------3-------3-------3-------3---|
 A||----------------------------------|--3-------3-------3-------3-------|
 E||--0-------0-------0-------0-------|----------------------------------|

| C G/B Am D
 
 E||----------------------------------|----2-------2-----|
 B||----1-------3-------1-------1-----|--------3-------0-|
 G||--------0-------0-------2-------2-|------2-------2---|
 D||------2-------0-------2-------2---|--0-------0-------|
 A||--3-------2-------0-------0-------|------------------|
 E||----------------------------------|------------------|

Bridge lead in
[G] [C/G] [G] [D/F#]  
 
 E||----------3----------------------|----------3---------------------|
 B||-----0----------0h-1-------1-----|-----0------------0-------0-----|
 G||--------------0--------0-------0-|--------------0-------0-------0-|
 D||-----0------0---0h-2-2---2---2---|-----0------0-------0-------0---|
 A||---------------------------------|--------------------------------|
 E||--3-----3------------------------|--3-----3-------3-------2-------|

Bridge
[Em] [A7] [A7sus4]  
 
 E||--------------0------------|----------0-----------------|
 B||----0-----0-------0--0-----|-----2----2----2h-3---3-2---|
 G||-------0-----0-----------0-|-----0---------0------0-0---|
 D||-----2-----2-----2-----2---|-----2---------2------2-2---|
 A||---------------------------|--0-----0----0------0-------|
 E||--0-----0-----0-----0------|----------------------------|

[Em] [A7] [A7sus4]  
 
 E||--------------0------------|----------0-----------------|
 B||----0-----0-------0--0-----|-----2----2----2h-3---3-2---|
 G||-------0-----0-----------0-|-----0---------0------0-0---|
 D||-----2-----2-----2-----2---|-----2---------2------2-2---|
 A||---------------------------|--0-----0----0------0-------|
 E||--0-----0-----0-----0------|----------------------------|

[Cadd9] [G/B] [Am] [G]  
 
 E||----0---------------0-------------|----------------------------------|
 B||------------3---------------3-----|----1-------1-------0-------0-----|
 G||--------0-------0-------0-------0-|--------2-------2-------0-------0-|
 D||------0-------0-------0-------0---|------2-------2-------0-------0---|
 A||--3-------3-------2-------2-------|--0-------0-----------------------|
 E||----------------------------------|------------------3-------3-------|

[D] [Dsus4] [Dsus4]  
 
 E||---2----2h3---|--2h3---|
 B||---3----3-----|--3-----|
 G||---2----2-----|--2-----|
 D||---0----0-----|--0-----|
 A||--------------|--------|
 E||--------------|--------|

End of final chorus - Repeat 3x
[C] [G/B] [Am] [D] [G]  
 
 E||----------------------------------|----2-------2---------------------|
 B||----1-------3-------1-------1-----|--------3-------0---0-------0-----|
 G||--------0-------0-------2-------2-|------2-------2---------0-------0-|
 D||------2-------0-------2-------2---|--0-------0-----------0-------0---|
 A||--3-------2-------0-------0-------|----------------------------------|
 E||----------------------------------|------------------3-------3-------|

[C] [G/B] [Am] [D]  
 
 E||----------------------------------|----2-------2-------2-------2-----|
 B||----1-------3-------1-------1-----|--------3-------3-------3-------3-|
 G||--------0-------0-------2-------2-|------2-------2-------2-------2---|
 D||------2-------0-------2-------2---|--0-------0-------0-------0-------|
 A||--3-------2-------0-------0-------|----------------------------------|
 E||----------------------------------|----------------------------------|

Outro
[Cadd9] [G/B] [Cadd9] [G/B]  
 
 E||----0---------------0-------------|----0---------------0-------------|
 B||------------3---------------3-----|------------3---------------3-----|
 G||--------0-------0-------0-------0-|--------0-------0-------0-------0-|
 D||------0-------0-------0-------0---|------0-------0-------0-------0---|
 A||--3-------3-------2-------2-------|--3-------3-------2-------2-------|
 E||----------------------------------|----------------------------------|

[Cadd9] [G/B] [A#6] [Am7] [D6] [G]  
 
 E||----0-----------------------------|------------2-----3---|
 B||------------3-------3-------3-----|----1-----------0-0---|
 G||--------0-------0-------0-------0-|--------0-----2---0---|
 D||------0-------0-------0-------0---|------2---0-------0---|
 A||--3-------2-------1-------1-------|--0-------------------|
 E||----------------------------------|------------------3---|


Important: The song above is NOT stored on the Chordie server. The original song is hosted at www.guitaretab.com. Chordie works as a search engine and provides on-the-fly formatting. Chordie does not index songs against artists'/composers' will. To remove this song please click here.

Text color:
Chord color:
Chord grids: 
Font size:    
Page size: 

A#6 A7 A7sus4 Am Am7 C C/G Cadd9 D D#dim7 D/F# D6 Dsus4 Em G G/B G7/C
Rate #1 of 4 versions

Login - add to songbook

SHARE PAGE  




You need to log in to post comments