Guitar Tabs, Chords and Lyrics
Major upgrade!! After one year development the new version of Chordie is now online! Please give feedback.


Edith and the Kingpin  Joni Mitchell

Title: Edith and The Kingpin
Artist: Joni Mitchell
Album: The Hissing of Summer Lawns
Tabber: Jonathan Townes
Tempo = 100
Steel Guitar
%%%%%%%%%
% INTRO %
%%%%%%%%%
[Ab/Eb] [G-7] [C]  
[Ab/Eb] [G-7]  
 
 E |----------------|----------------|----------------||
 B |4-------3-------|1---------------|4-------3-------||
 G |3-------3-------|0---------------|3-------3-------||
 D |5-------3-------|2---------------|5-------3-------||
 A |----------------|3---------------|----------------||
 E |4-------3-------|----------------|4-------3-------||

%%%%%%
% A1 %
%%%%%%
[C-7] [F/G] [Ab/Eb]  
 
 E |----------------|----------------|----------------|----------------|
 B |4---------------|----------------|6---------------|--4-------------|
 G |3---------------|----------------|5---------------|--3-------------|
 D |5---------------|----------------|7---------------|--5-------------|
 A |3---------------|----------------|----------------|----------------|
 E |----------------|----------------|3---------------|--4-------------|

[Eb/F] [Ab/Eb]  
 
 E |----------------|----------------|----------------|----------------||
 B |4---------------|----------------|4---------------|----------------||
 G |3---------------|----------------|3---------------|----------------||
 D |5---------------|----------------|5---------------|----------------||
 A |----------------|----------------|----------------|----------------||
 E |1---------------|----------------|4---------------|----------------||

%%%%%%
% A2 %
%%%%%%
[C-7] [F/G] [Ab/Eb]  
 
 E |----------------|----------------|----------------|----------------|
 B |4---------------|----------------|6---------------|--4-------------|
 G |3---------------|----------------|5---------------|--3-------------|
 D |5---------------|----------------|7---------------|--5-------------|
 A |3---------------|----------------|----------------|----------------|
 E |----------------|----------------|3---------------|--4-------------|

[Eb/F] [C] [Bb/C]  
 
 E |----------------|----------------|----------------|----------------||
 B |4---------------|----------------|1---------------|3---------------||
 G |3---------------|----------------|0---------------|3---------------||
 D |5---------------|----------------|2---------------|3---------------||
 A |----------------|----------------|3---------------|3---------------||
 E |1---------------|----------------|----------------|----------------||

%%%%%
% B %
%%%%%
[Ab/Eb] [F/G]  
 
 E |----------------|----------------|----------------|----------------|
 B |4---------------|----------------|6---------------|----------------|
 G |3---------------|----------------|5---------------|----------------|
 D |5---------------|----------------|7---------------|----------------|
 A |----------------|----------------|----------------|----------------|
 E |4---------------|----------------|3---------------|----------------|

[Bb/Eb] [Ab/Eb] [F/G] 
[G9]  
 
 E |----------------|----------------|----------------|----------------||
 B |3---------------|4---------------|1---------------|0---------------||
 G |3---------------|3---------------|2---------------|2---------------||
 D |3---------------|5---------------|3---------------|3---------------||
 A |6---------------|----------------|----------------|----------------||
 E |----------------|4---------------|3---------------|3---------------|| GO TO A1

%%%%%%%%%%
% ENDING %
%%%%%%%%%%
[C-7] [Ab/Eb] [G-7]  
 
 E |----------------|--------------- |
 B |4---------------|4-------3-------|
 G |3---------------|3-------3-------|
 D |5---------------|5-------3-------|
 A |3---------------|----------------|
 E |----------------|4-------3-------|

(Repeat 3x's)
[C-7] [Ab/Eb] [G-7]  
 
 E | ----------------|---------------- |
 B | 1---------------|4-------3------- |
 G |o 0---------------|3-------3------- o|
 D |o 2---------------|5-------3------- o|
 A | 3---------------|---------------- |
 E | ----------------|4-------3------- |

[C]  
 
 E |----------------||
 B |1---------------||
 G |0---------------||
 D |2---------------||
 A |3---------------||
 E |----------------||


Important: The song above is NOT stored on the Chordie server. The original song is hosted at www.guitaretab.com. Chordie works as a search engine and provides on-the-fly formatting. Chordie does not index songs against artists'/composers' will. To remove this song please click here.

Text color:
Chord color:
Chord grids: 
Font size:    
Page size: 

Bb/C C C-7 Eb/F F/G G-7 G9
Rate #1 of 8 versions

Login - add to songbook

SHARE PAGE  




You need to log in to post comments