Guitar Tabs, Chords and Lyrics
Server problems seems to be fixed. Chordie has been experiencing problems with songs disappearing. These issues now seems to be fixed, but still verifying the fix. If you find anything strange, please email admin@chordie.com.


Miss Popularity   Jordan Pruitt

 
 ------------------------------------------------------------------------------

 


 JoRDaN PRuiTT


 Song : Miss Popularity


 Album : No Ordinary Girl


 


 VERSION 2 (Sorry for errors on first version)


 

 
 -------------------------------------------------------------------------------|
 >------------------------------------------------------------------------------|
 Tunning : Dropped D - (D-A-D-G-B-E)
 -------------------------------------------------------------------------------|

 


 >> Informations : enjoy... (by xx_xx_my_angel_xx_xx@hotmail.com)


 

 
 ------------------------------------------------------------------------------

 


 


 [a] accentuate - [b] bend - [m] p-mute - [ops] open strings - [b] harmony


 


 

 
 ------------------------------------------------------------------------------

 


 Intro - 00:00


 


 

 
 ||-------------------------------------------------------------------|
 ||-------------------------------------------------------------------|
 ||-------------------------------------------------------------------|
 ||---------6-6-4-4--------------------------6-6-4-4------------------|
 ||---6-6-6---------4-4-3-3------------6-6-6---------4-4-3-3----------|
 ||-------------------------6-6-4-4-----------------------------------|
 -------------------------------------------------------------------||
 -------------------------------------------------------------------||
 -------------------------------------------------------------------||
 ---------6-6-4-4--------------------------6-6-4-4------------------||
 ---6-6-6---------4-4-3-3------------6-6-6---------4-4-3-3----------||
 -------------------------6-6-4-4-----------------------------------||
 ----------------------------------------------------------------------

 


 Fill 1 - 00:20 | Soflty


 


 

 
 ||-------------------------------------------------------------------|
 ||---9-----------9----------9----------------------------------------|
 ||--------11----------11---------11----9-----8---9-----8-------------|
 ||-----13----13----13----13---13----(9)---(9)-----(9)----9^10--------|
 ||---------------------------------------------7-----7---------------|
 ||-------------------------------------------------------------------|
 -------------------------------------------------------------------|
 ---9-----------9----------9----------------------------------------|
 --------11----------11---------11----9-----8---9-----8-------------|
 -----13----13----13----13---13----(9)---(9)-----(9)----9^10--------|
 ---------------------------------------------7-----7---------------|
 -------------------------------------------------------------------|

 


 


 Fill 1-B (00:39) | Solfty


 


 

 
 ||--------------------------------------------|
 ||--------7------9-7---7------9------9-7------|
 ||------9------9-----9------8---8-------------|
 ||---11-----11-----------10-------10----------|
 ||--------------------------------------------|
 ||--------------------------------------------|
 --------------------------------------------||
 --------7------9-7-------7-----7-------7----||
 ------9------9-----9---9-----9---9---9------||
 ---11-----11---------9-----9-------9--------||
 --------------------------------------------||
 --------------------------------------------||
 ----------------------------------------------------------------------

 


 Fill 2 - 00:49


 


 [a] 


 

 
 ||-------------------------------------------------------|
 ||-------------------------------------------------------|
 ||-----------------------------4--4--4-------------------|
 ||---6--6--6---2--2--2--2--2---4--4--4---4--4--4--4--4---|
 ||---6--6--6---2--2--2--2--2---2--2--2---4--4--4--4--4---|
 ||---6--6--6---2--2--2--2--2-------------4--4--4--4--4---|
 -------------------------------------------------------|
 -------------------------------------------------------|
 -----------------------------4--4--4-------------------|
 ---6--6--6---2--2--2--2--2---4--4--4---4--4--4--4--4---|
 ---6--6--6---2--2--2--2--2---2--2--2---4--4--4--4--4---|
 ---6--6--6---2--2--2--2--2-------------4--4--4--4--4---|
 -------------------------------------------------------|
 -------------------------------------------------------|
 -----------------------------4--4--4-------------------|
 ---6--6--6---2--2--2--2--2---4--4--4---4--4--4--4--4---|
 ---6--6--6---2--2--2--2--2---2--2--2---4--4--4--4--4---|
 ---6--6--6---2--2--2--2--2-------------4--4--4--4--4---|
 -------------------------------------------------------||
 -------------------------------------------------------||
 ---4--4--4--4--4--4--4--4--4--4--4--4--4--4--4---------||
 ---4--4--4--4--4--4--4--4--2--2--2--2--2--2--2---------||
 ---2--2--2--2--2--2--2--2--2--2--2--2--2--2--2---------||
 ---2--2--2--2--2--2--2--2--2--2--2--2--2--2--2---------||
 ----------------------------------------------------------------------

 


 Fill 3 - 01:10


 


 

 
 ||-------------------------------------------------------------------||
 ||-------------------------------------------------------------------||
 ||-------------------------------------------------------------------||
 ||---------6-6-4-4--------------------------6-6-4-4------------------||
 ||---6-6-6---------4-4-3-3------------6-6-6---------4-4-3-3----------||
 ||-------------------------6-6-4-4-----------------------------------||
 ----------------------------------------------------------------------

 


 Fill 4 - 01:20 | Solfty


 


 

 
 ||-------------------------------------------------------------------|
 ||---9-----------9----------9----------------------------------------|
 ||--------11----------11---------11----9-----8---9-----8-------------|
 ||-----13----13----13----13---13----(9)---(9)-----(9)----9^10--------|
 ||---------------------------------------------7-----7---------------|
 ||-------------------------------------------------------------------|
 -------------------------------------------------------------------|
 ---9-----------9----------9----------------------------------------|
 --------11----------11---------11----9-----8---9-----8-------------|
 -----13----13----13----13---13----(9)---(9)-----(9)----9^10--------|
 ---------------------------------------------7-----7---------------|
 -------------------------------------------------------------------|

 


 


 Fill 4-B (01:39) | Soflty


 


 

 
 ||--------------------------------------------|
 ||--------7------9-7---7------9------9-7------|
 ||------9------9-----9------8---8-------------|
 ||---11-----11-----------10-------10----------|
 ||--------------------------------------------|
 ||--------------------------------------------|
 --------------------------------------------||
 --------7------9-7-------7-----7-------7----||
 ------9------9-----9---9-----9---9---9------||
 ---11-----11---------9-----9-------9--------||
 --------------------------------------------||
 --------------------------------------------||
 ----------------------------------------------------------------------

 


 Fill 5 - 01:51


 


 [a] 


 

 
 ||-------------------------------------------------------|
 ||-------------------------------------------------------|
 ||-----------------------------4--4--4-------------------|
 ||---6--6--6---2--2--2--2--2---4--4--4---4--4--4--4--4---|
 ||---6--6--6---2--2--2--2--2---2--2--2---4--4--4--4--4---|
 ||---6--6--6---2--2--2--2--2-------------4--4--4--4--4---|
 -------------------------------------------------------|
 -------------------------------------------------------|
 -----------------------------4--4--4-------------------|
 ---6--6--6---2--2--2--2--2---4--4--4---4--4--4--4--4---|
 ---6--6--6---2--2--2--2--2---2--2--2---4--4--4--4--4---|
 ---6--6--6---2--2--2--2--2-------------4--4--4--4--4---|
 -------------------------------------------------------|
 -------------------------------------------------------|
 -----------------------------4--4--4-------------------|
 ---6--6--6---2--2--2--2--2---4--4--4---4--4--4--4--4---|
 ---6--6--6---2--2--2--2--2---2--2--2---4--4--4--4--4---|
 ---6--6--6---2--2--2--2--2-------------4--4--4--4--4---|
 -------------------------------------------------------||
 ---4--4--4--4--4--4--4--4------------------------------||
 ---4--4--4--4--4--4--4--4--4--4--4--4--4--4--4---------||
 ---4--4--4--4--4--4--4--4--2--2--2--2--2--2--2---------||
 ---2--2--2--2--2--2--2--2--2--2--2--2--2--2--2---------||
 ---2--2--2--2--2--2--2--2--2--2--2--2--2--2--2---------||

 


 


 [a] 


 

 
 ||-------------------------------------------------------|
 ||-------------------------------------------------------|
 ||-----------------------------4--4--4-------------------|
 ||---6--6--6---2--2--2--2--2---4--4--4---4--4--4--4--4---|
 ||---6--6--6---2--2--2--2--2---2--2--2---4--4--4--4--4---|
 ||---6--6--6---2--2--2--2--2-------------4--4--4--4--4---|
 -------------------------------------------------------|
 -------------------------------------------------------|
 -----------------------------4--4--4-------------------|
 ---6--6--6---2--2--2--2--2---4--4--4---4--4--4--4--4---|
 ---6--6--6---2--2--2--2--2---2--2--2---4--4--4--4--4---|
 ---6--6--6---2--2--2--2--2-------------4--4--4--4--4---|
 -------------------------------------------------------|
 -------------------------------------------------------|
 -----------------------------4--4--4-------------------|
 ---6--6--6---2--2--2--2--2---4--4--4---4--4--4--4--4---|
 ---6--6--6---2--2--2--2--2---2--2--2---4--4--4--4--4---|
 ---6--6--6---2--2--2--2--2-------------4--4--4--4--4---|
 -------------------------------------------------------||
 ---4--4--4--4--4--4--4--4------------------------------||
 ---4--4--4--4--4--4--4--4--4--4--4--4--4--4--4---------||
 ---4--4--4--4--4--4--4--4--2--2--2--2--2--2--2---------||
 ---2--2--2--2--2--2--2--2--2--2--2--2--2--2--2---------||
 ---2--2--2--2--2--2--2--2--2--2--2--2--2--2--2---------||
 ----------------------------------------------------------------------

 


 Fill 6 - 02:30


 


 

 
 ||-----------------------------------------------------|
 ||-----------------------------------------------------|
 ||-----------------------------------------------------|
 ||---1--1--1--1--1--1--1--1--6--6--6--6--6--6--6--6----|
 ||---1--1--1--1--1--1--1--1--6--6--6--6--6--6--6--6----|
 ||---1--1--1--1--1--1--1--1--6--6--6--6--6--6--6--6----|
 -----------------------------------------------------|
 -----------------------------------------------------|
 -----------------------------------------------------|
 ---1--1--1--1--1--1--1--1--6--6--6--6--6--6--6--6----|
 ---1--1--1--1--1--1--1--1--6--6--6--6--6--6--6--6----|
 ---1--1--1--1--1--1--1--1--6--6--6--6--6--6--6--6----|
 -----------------------------------------------------|
 -----------------------------------------------------|
 -----------------------------------------------------|
 ---1--1--1--1--1--1--1--1--6--6--6--6--6--6--6--6----|
 ---1--1--1--1--1--1--1--1--6--6--6--6--6--6--6--6----|
 ---1--1--1--1--1--1--1--1--6--6--6--6--6--6--6--6----|
 -----------------------------------------------------||
 -----------------------------------------------------||
 -----------------------------------------------------||
 ---2--2--2--2--2--2--2--2--1-[ops]-------------------||
 ---2--2--2--2--2--2--2--2--1-[ops]-------------------||
 ---2--2--2--2--2--2--2--2--1-[ops]-------------------||
 ----------------------------------------------------------------------

 


 Fill 7 - 2:48


 


 [a] 


 

 
 ||-------------------------------------------------------|
 ||-------------------------------------------------------|
 ||-----------------------------4--4--4-------------------|
 ||---6--6--6---2--2--2--2--2---4--4--4---4--4--4--4--4---|
 ||---6--6--6---2--2--2--2--2---2--2--2---4--4--4--4--4---|
 ||---6--6--6---2--2--2--2--2-------------4--4--4--4--4---|
 -------------------------------------------------------|
 -------------------------------------------------------|
 -----------------------------4--4--4-------------------|
 ---6--6--6---2--2--2--2--2---4--4--4---4--4--4--4--4---|
 ---6--6--6---2--2--2--2--2---2--2--2---4--4--4--4--4---|
 ---6--6--6---2--2--2--2--2-------------4--4--4--4--4---|

 


 


 (Fill 7-B)-Lead Guitar (02:58)


 


 

 
 -------------------------------------------------------|
 -------------------------------------------------------|
 -----------------------------4--4--4-------------------|
 ---6--6--6---2--2--2--2--2---4--4--4---4--4--4--4--4---|
 ---6--6--6---2--2--2--2--2---2--2--2---4--4--4--4--4---|
 ---6--6--6---2--2--2--2--2-------------4--4--4--4--4---|
 -------------------------------------------------------||
 ---4--4--4--4--4--4--4--4------------------------------||
 ---4--4--4--4--4--4--4--4--4--4--4--4--4--4--4---------||
 ---4--4--4--4--4--4--4--4--2--2--2--2--2--2--2---------||
 ---2--2--2--2--2--2--2--2--2--2--2--2--2--2--2---------||
 ---2--2--2--2--2--2--2--2--2--2--2--2--2--2--2---------||

 


 


 [a] 


 

 
 ||-------------------------------------------------------|
 ||-------------------------------------------------------|
 ||-----------------------------4--4--4-------------------|
 ||---6--6--6---2--2--2--2--2---4--4--4---4--4--4--4--4---|
 ||---6--6--6---2--2--2--2--2---2--2--2---4--4--4--4--4---|
 ||---6--6--6---2--2--2--2--2-------------4--4--4--4--4---|
 -------------------------------------------------------|
 -------------------------------------------------------|
 -----------------------------4--4--4-------------------|
 ---6--6--6---2--2--2--2--2---4--4--4---4--4--4--4--4---|
 ---6--6--6---2--2--2--2--2---2--2--2---4--4--4--4--4---|
 ---6--6--6---2--2--2--2--2-------------4--4--4--4--4---|
 -------------------------------------------------------|
 -------------------------------------------------------|
 -----------------------------4--4--4-------------------|
 ---6--6--6---2--2--2--2--2---4--4--4---4--4--4--4--4---|
 ---6--6--6---2--2--2--2--2---2--2--2---4--4--4--4--4---|
 ---6--6--6---2--2--2--2--2-------------4--4--4--4--4---|
 -------------------------------------------------------||
 ---4--4--4--4--4--4--4--4------------------------------||
 ---4--4--4--4--4--4--4--4--4--4--4--4--4--4--4---------||
 ---4--4--4--4--4--4--4--4--2--2--2--2--2--2--2---------||
 ---2--2--2--2--2--2--2--2--2--2--2--2--2--2--2---------||
 ---2--2--2--2--2--2--2--2--2--2--2--2--2--2--2---------||

 


 


 and fill repeat...


 


 

 
 ----------------------------------------------------------------------

 


 Fill 7-B Guitar Ending Track (02:58)


 


 ^ Legato


 ~ Sustain


 


 

 
 ||---11^9------------------------------------16~~---|
 ||-------12-11^12----------14----16~~-^17^19--------|
 ||----------------11~~--13^---13^-------------------|
 ||--------------------------------------------------|
 ||--------------------------------------------------|
 ||--------------------------------------------------|

 


 


 Fill 7-2


 


 

 
 ||------14---------------14^16~~~~---14-----------------------14^16~~---||
 ||---16----16---------16----------16----16-----------16----17^----------||
 ||------------13~~--------------------------16~~--16^---16^-------------||
 ||----------------------------------------------------------------------||
 ||----------------------------------------------------------------------||
 ||----------------------------------------------------------------------||

 


 


 and FILL 7-2 repeat...


 


 

 
 ----------------------------------------------------------------------


Important: The song above is NOT stored on the Chordie server. The original song is hosted at www.guitaretab.com. Chordie works as a search engine and provides on-the-fly formatting. Chordie does not index songs against artists'/composers' will. To remove this song please click here.

This song is displayed as text-only. Transposing and tuning is only available for chordpro-songs.
Rate #1 of 3 versions

Login - add to songbook

SHARE PAGE  



You need to log in to post comments