Guitar Tabs, Chords and Lyrics
Server problems seems to be fixed. Chordie has been experiencing problems with songs disappearing. These issues now seems to be fixed, but still verifying the fix. If you find anything strange, please email admin@chordie.com.


No Ordinary Girl   Jordan Pruitt

 
 ------------------------------------------------------------------------------

 


 JoRDaN PRuiTT


 Song : No Ordinary Girl


 Album : No Ordinary Girl


 

 
 -------------------------------------------------------------------------------|
 >------------------------------------------------------------------------------|
 Tunning : Dropped D - (D-A-D-G-B-E)
 -------------------------------------------------------------------------------|

 


 >> Informations : n/a (by xx_xx_my_angel_xx_xx@hotmail.com)


 

 
 ------------------------------------------------------------------------------

 


 


 [a] accentuate - [b] bend - [m] p-mute - [ops] open strings - [b] harmony


 


 

 
 ------------------------------------------------------------------------------

 


 Intro - 00:00


 


 [a] [a] [a] [a] [a] -[pm]-


 

 
 ||-----------------------------------------------------------------------||
 ||-----------------------------4^5^4-----------------------------4-5-7---||
 ||--------------------------4--4---4--------------------------4--4-4-4---||
 ||-------2^4--0-0^2[b]----4-4--x---x-------2^4--0-0^2[b]----4-4--x-x-x---||
 ||-----2-2----2-2-x-----2----------------2-2----2-2-x-----2--------------||
 ||---2---------------------------------2---------------------------------||
 ----------------------------------------------------------------------

 


 Fill 1 - 00:12


 


 [a] [a] [a] [a] [a] [a] [a] [a] 


 

 
 ||---x---x---x-------------------x---x---x--------------------|
 ||---x---x---5-----x---x---4-----x---x---5------x---x---4-----|
 ||---x---4---4-----x---4---4-----x---4---4------x---4---4-----|
 ||---2---2---2-----4---4---4-----2---2---2------4---4---4-----|
 ||---2---2---2-----2---2---2-----2---2---2------2---2---2-----|
 ||---2---2---2-------------------2---2---2--------------------|

 


 


 [a] [a] [a] [a] [a] [a] [a] [a] -[crs]--


 

 
 ---x---x---x-------------------x---x---x-----------------------------||
 ---x---x---5-----x---x---4-----x---x---5------x---x---4--------------||
 ---x---4---4-----x---4---4-----x---4---4------x---4---4--------------||
 ---2---2---2-----4---4---4-----2---2---2------4---4---4--------------||
 ---2---2---2-----2---2---2-----2---2---2------2---2---2----7-7-7-7---||
 ---2---2---2-------------------2---2---2-------------------7-7-7-7---||
 ----------------------------------------------------------------------

 


 Fill 2 - 00:30


 


 

 
 ||-------------------------------------------------------|
 ||-------------------------------------------------------|
 ||-------------------------------------------------------|
 ||---5-5-5-5-5-5-5-5--7-7-7-7-7-7-7-7--5-5-5-5-5-5-5-5---|
 ||---5-5-5-5-5-5-5-5--7-7-7-7-7-7-7-7--5-5-5-5-5-5-5-5---|
 ||---5-5-5-5-5-5-5-5--7-7-7-7-7-7-7-7--5-5-5-5-5-5-5-5---|
 -----------------------||
 -----------------------||
 -----------------------||
 ---4-4-4-4--3-3-3-3----||
 ---4-4-4-4--3-3-3-3----||
 ---4-4-4-4--3-3-3-3----||
 ----------------------------------------------------------------------

 


 Fill 3 - 00:39


 


 [a] [a] [a] [a] [a] [a] [a] [a] [a] 


 

 
 ||-------------------------------------------------------|
 ||---x--x--x---5-5----x--x--4---4-4----------------------|
 ||---x--x--x---4-4----x--4--4---4-4----------------------|
 ||---2--2--2---2-2----4--4--4---4-4----5--5--5---5-5-----|
 ||---2--2--2---2-2----2--2--2---2-2----5--5--5---5-5-----|
 ||---2--2--2---2-2---------------------5--5--5---5-5-----|

 


 


 [a] [a] [a] [a] [a] [a] 


 

 
 -------------------------------------------------------|
 ----------------------x--x--x---5-5----x--x--4---4-4---|
 ----------------------x--x--x---4-4----x--4--4---4-4---|
 ---7-7-7-7--6-6-6-6---2--2--2---2-2----4--4--4---4-4---|
 ---7-7-7-7--6-6-6-6---2--2--2---2-2----2--2--2---2-2---|
 ---7-7-7-7--6-6-6-6---2--2--2---2-2--------------------|
 ---------------------------------------||
 ---------------------------------------||
 ---------------------------------------||
 ---5-5-5-5-5-5-5-5--7-7-7-7--9-9-9-9---||
 ---5-5-5-5-5-5-5-5--7-7-7-7--9-9-9-9---||
 ---5-5-5-5-5-5-5-5--7-7-7-7--9-9-9-9---||
 ----------------------------------------------------------------------

 


 Fill 4 - 00:57


 


 [a] [a] [a] [a] [a] [a] [a] [a] [a] [a] [a] [a] 


 

 
 ||-----------------------------------------------------------------||
 ||-----------------------------------------------------------------||
 ||-----------------------------------------------------------------||
 ||---7--7--7---7-7----2--2--2---2-2----9--9--9---9-9----7--7--7----||
 ||---7--7--7---7-7----2--2--2---2-2----9--9--9---9-9----7--7--7----||
 ||---7--7--7---7-7----2--2--2---2-2----9--9--9---9-9----7--7--7----||
 ----------------------------------------------------------------------

 


 Fill 5 - 01:06


 


 [a] [a] [a] [a] [a] [a] [a] [a] 


 

 
 ||---x---x---x-------------------x---x---x--------------------|
 ||---x---x---5-----x---x---4-----x---x---5------x---x---4-----|
 ||---x---4---4-----x---4---4-----x---4---4------x---4---4-----|
 ||---2---2---2-----4---4---4-----2---2---2------4---4---4-----|
 ||---2---2---2-----2---2---2-----2---2---2------2---2---2-----|
 ||---2---2---2-------------------2---2---2--------------------|

 


 


 [a] [a] [a] [a] [a] [a] [a] [a] 


 

 
 ---x---x---x-------------------x---x---x-----------------------------||
 ---x---x---5-----x---x---4-----x---x---5------x---x---4--------------||
 ---x---4---4-----x---4---4-----x---4---4------x---4---4--------------||
 ---2---2---2-----4---4---4-----2---2---2------4---4---4--------------||
 ---2---2---2-----2---2---2-----2---2---2------2---2---2----7-7-7-7---||
 ---2---2---2-------------------2---2---2-------------------7-7-7-7---||
 ----------------------------------------------------------------------

 


 Fill 6 - 01:25


 


 

 
 ||-------------------------------------------------------|
 ||-------------------------------------------------------|
 ||-------------------------------------------------------|
 ||---5-5-5-5-5-5-5-5--7-7-7-7-7-7-7-7--5-5-5-5-5-5-5-5---|
 ||---5-5-5-5-5-5-5-5--7-7-7-7-7-7-7-7--5-5-5-5-5-5-5-5---|
 ||---5-5-5-5-5-5-5-5--7-7-7-7-7-7-7-7--5-5-5-5-5-5-5-5---|
 -----------------------||
 -----------------------||
 -----------------------||
 ---4-4-4-4--3-3-3-3----||
 ---4-4-4-4--3-3-3-3----||
 ---4-4-4-4--3-3-3-3----||
 ----------------------------------------------------------------------

 


 Fill 7 - 01:34


 


 [a] [a] [a] [a] [a] [a] [a] [a] [a] 


 

 
 ||-------------------------------------------------------|
 ||---x--x--x---5-5----x--x--4---4-4----------------------|
 ||---x--x--x---4-4----x--4--4---4-4----------------------|
 ||---2--2--2---2-2----4--4--4---4-4----5--5--5---5-5-----|
 ||---2--2--2---2-2----2--2--2---2-2----5--5--5---5-5-----|
 ||---2--2--2---2-2---------------------5--5--5---5-5-----|

 


 


 [a] [a] [a] [a] [a] [a] 


 

 
 -------------------------------------------------------|
 ----------------------x--x--x---5-5----x--x--4---4-4---|
 ----------------------x--x--x---4-4----x--4--4---4-4---|
 ---7-7-7-7--6-6-6-6---2--2--2---2-2----4--4--4---4-4---|
 ---7-7-7-7--6-6-6-6---2--2--2---2-2----2--2--2---2-2---|
 ---7-7-7-7--6-6-6-6---2--2--2---2-2--------------------|
 ---------------------------------------||
 ---------------------------------------||
 ---------------------------------------||
 ---5-5-5-5-5-5-5-5--7-7-7-7--9-9-9-9---||
 ---5-5-5-5-5-5-5-5--7-7-7-7--9-9-9-9---||
 ---5-5-5-5-5-5-5-5--7-7-7-7--9-9-9-9---||

 


 


 [a] [a] [a] [a] [a] [a] [a] [a] [a] 


 

 
 ||-------------------------------------------------------|
 ||---x--x--x---5-5----x--x--4---4-4----------------------|
 ||---x--x--x---4-4----x--4--4---4-4----------------------|
 ||---2--2--2---2-2----4--4--4---4-4----5--5--5---5-5-----|
 ||---2--2--2---2-2----2--2--2---2-2----5--5--5---5-5-----|
 ||---2--2--2---2-2---------------------5--5--5---5-5-----|

 


 


 [a] [a] [a] [a] [a] [a] 


 

 
 -------------------------------------------------------|
 ----------------------x--x--x---5-5----x--x--4---4-4---|
 ----------------------x--x--x---4-4----x--4--4---4-4---|
 ---7-7-7-7--6-6-6-6---2--2--2---2-2----4--4--4---4-4---|
 ---7-7-7-7--6-6-6-6---2--2--2---2-2----2--2--2---2-2---|
 ---7-7-7-7--6-6-6-6---2--2--2---2-2--------------------|
 ---------------------------------------||
 ---------------------------------------||
 ---------------------------------------||
 ---5-5-5-5-5-5-5-5--7-7-7-7--9-9-9-9---||
 ---5-5-5-5-5-5-5-5--7-7-7-7--9-9-9-9---||
 ---5-5-5-5-5-5-5-5--7-7-7-7--9-9-9-9---||
 ----------------------------------------------------------------------

 


 Fill 8 - 02:10


 


 

 
 ||---------------------------------------------------------------------|
 ||---------------------------------------------------------------------|
 ||---------------------------------------------------------------------|
 ||---7--7--7---7-7----2--2--2---2-2----9--9--9---9-9----7--7--7---7-7--|
 ||---7--7--7---7-7----2--2--2---2-2----9--9--9---9-9----7--7--7---7-7--|
 ||---7--7--7---7-7----2--2--2---2-2----9--9--9---9-9----7--7--7---7-7--|
 -------------------------------------------------------||
 -------------------------------------------------------||
 -------------------------------------------------------||
 ---2--2--2---2-2---4-4-4-4-4-4-4-4--5-5-5-5--7-7-7-7---||
 ---2--2--2---2-2---4-4-4-4-4-4-4-4--5-5-5-5--7-7-7-7---||
 ---2--2--2---2-2---4-4-4-4-4-4-4-4--5-5-5-5--7-7-7-7---||
 ----------------------------------------------------------------------

 


 Fill 9 - 02:26


 


 [a] [a] [a] [a] [a] [a] [a] [a] [a] 


 

 
 ||-------------------------------------------------------|
 ||---x--x--x---5-5----x--x--4---4-4----------------------|
 ||---x--x--x---4-4----x--4--4---4-4----------------------|
 ||---2--2--2---2-2----4--4--4---4-4----5--5--5---5-5-----|
 ||---2--2--2---2-2----2--2--2---2-2----5--5--5---5-5-----|
 ||---2--2--2---2-2---------------------5--5--5---5-5-----|

 


 


 [a] [a] [a] [a] [a] [a] 


 

 
 -------------------------------------------------------|
 ----------------------x--x--x---5-5----x--x--4---4-4---|
 ----------------------x--x--x---4-4----x--4--4---4-4---|
 ---7-7-7-7--6-6-6-6---2--2--2---2-2----4--4--4---4-4---|
 ---7-7-7-7--6-6-6-6---2--2--2---2-2----2--2--2---2-2---|
 ---7-7-7-7--6-6-6-6---2--2--2---2-2--------------------|
 ---------------------------------------|
 ---------------------------------------|
 ---------------------------------------|
 ---5-5-5-5-5-5-5-5--7-7-7-7--9-9-9-9---|
 ---5-5-5-5-5-5-5-5--7-7-7-7--9-9-9-9---|
 ---5-5-5-5-5-5-5-5--7-7-7-7--9-9-9-9---|

 


 


 [a] [a] [a] [a] [a] [a] [a] [a] [a] 


 

 
 ||-------------------------------------------------------|
 ||---x--x--x---5-5----x--x--4---4-4----------------------|
 ||---x--x--x---4-4----x--4--4---4-4----------------------|
 ||---2--2--2---2-2----4--4--4---4-4----5--5--5---5-5-----|
 ||---2--2--2---2-2----2--2--2---2-2----5--5--5---5-5-----|
 ||---2--2--2---2-2---------------------5--5--5---5-5-----|

 


 


 [a] [a] [a] [a] [a] [a] 


 

 
 -------------------------------------------------------|
 ----------------------x--x--x---5-5----x--x--4---4-4---|
 ----------------------x--x--x---4-4----x--4--4---4-4---|
 ---7-7-7-7--6-6-6-6---2--2--2---2-2----4--4--4---4-4---|
 ---7-7-7-7--6-6-6-6---2--2--2---2-2----2--2--2---2-2---|
 ---7-7-7-7--6-6-6-6---2--2--2---2-2--------------------|
 ---------------------------------------|
 ---------------------------------------|
 ---------------------------------------|
 ---5-5-5-5-5-5-5-5--7-7-7-7--9-9-9-9---|
 ---5-5-5-5-5-5-5-5--7-7-7-7--9-9-9-9---|
 ---5-5-5-5-5-5-5-5--7-7-7-7--9-9-9-9---|
 ----------------------------------------------------------------------

 


 Fill 9 - 03:02 - Ending.


 


 [a] [a] [a] 


 

 
 -----------------------------------------------||
 -----------------------------------------------||
 -----------------------------------------------||
 ---7--7-7---7-7---7-7-7-7--9-9-9-9---2--2--2---||
 ---7--7-7---7-7---7-7-7-7--9-9-9-9---2--2--2---||
 ---7--7-7---7-7---7-7-7-7--9-9-9-9---2--2--2---||
 ----------------------------------------------------------------------


Important: The song above is NOT stored on the Chordie server. The original song is hosted at www.guitaretab.com. Chordie works as a search engine and provides on-the-fly formatting. Chordie does not index songs against artists'/composers' will. To remove this song please click here.

This song is displayed as text-only. Transposing and tuning is only available for chordpro-songs.
Rate #3 of 3 versions

Login - add to songbook

SHARE PAGE  




You need to log in to post comments