Guitar Tabs, Chords and Lyrics
Server problems seems to be fixed. Chordie has been experiencing problems with songs disappearing. These issues now seems to be fixed, but still verifying the fix. If you find anything strange, please email admin@chordie.com.


My Reality   Jordan Pruitt

 
 ------------------------------------------------------------------------------

 


 JoRDaN PRuiTT


 Song : My Reality


 Album : No Ordinary Girl


 

 
 -------------------------------------------------------------------------------|
 >------------------------------------------------------------------------------| Tunning
 Dropped D - (D-A-D-G-B-E)
 -------------------------------------------------------------------------------|

 


 >> Informations : enjoy... (by xx_xx_my_angel_xx_xx@hotmail.com)


 

 
 ------------------------------------------------------------------------------

 


 


 [a] accentuate - [b] bend - [m] p-mute - [ops] open strings - [b] harmony


 


 [~] sustain


 [x] block


 [^] legato


 

 
 ------------------------------------------------------------------------------

 


 Intro - 00:00


 


 [a] [\] [a] [\] [a] [\] 


 

 
 ||---2--2------2--2------2--2----------||
 ||---3--3------3--3------3--3------7---||
 ||---4--4------4--4------4--4------6---||
 ||---4--4------4--4------4--4------4---||
 ||---2--x------2--x------2--x------4---||
 ||---------------------------------4---||
 ----------------------------------------------------------------------

 


 Fill 1 - 00:11


 


 [a] [\] [a] [\] [a] [\] 


 

 
 ||---2--2------2--2------2--2----------|
 ||---3--3------3--3------3--3------7---|
 ||---4--4------4--4------4--4------6---|
 ||---4--4------4--4------4--4------4---|
 ||---2--x------2--x------2--x------4---|
 ||---------------------------------4---|

 


 


 [a] [\] [a] [\] [a] [\] 


 

 
 ---2--2---------2--2---------2--2-------------||
 ---3--3---------3--3---------3--3---------7---||
 ---4--4---------4--4---------4--4---------6---||
 ---4--4---5^4---4--4---5^4---4--4---5^4---4---||
 ---2--x---------2--x---------2--x---------4---||
 ------------------------------------------4---||
 ----------------------------------------------------------------------

 


 Fill 2 - 00:33 (Bridge)


 


 

 
 ||---7-------------------------------|
 ||---8-----------8-----------7-------|
 ||---9-----------7-----------6-------|
 ||---9-----------5-----------4-------|
 ||---7-----------5-----------4-------|
 ||---------------5-----------4-------|

 


 


 [crs].................


 

 
 ----------------------------||
 ----------------------------||
 ----------------------------||
 ---4--4--4--4--4--4--4--4---||
 ---4--4--4--4--4--4--4--4---||
 ---4--4--4--4--4--4--4--4---||
 ----------------------------------------------------------------------

 


 Fill 3 - 00:43


 


 Track A - Guitar A


 


 [a] [a] [a] [a] [a] [a] [a] [a] 


 

 
 ||---4----4--4----------------------------------------------|
 ||---3----3--3-----5----5--5-----9----9--9-----10---10-10---|
 ||---4----4--4-----4----4--4-----7----7--7-----9----9--7----|
 ||---4----4--4-----2----2--2-----5----5--5-----7----7--7----|
 ||---2----2--2-----2----2--2-----5----5--5-----7----7--7----|
 ||-----------------2----2--2-----5----5--5-----7----7--7----|

 


 


 [a] [a] [a] -[a]- [a] [a]


 

 
 ---2----2-----2-----------------------------------|
 ---3----3-----3-----------------------------------|
 ---4----4-----4----4-4-4-----7---7----6---6---6---|
 ---2----2-----2----2-2-2-----5---5----4---4---4---|
 ---2----2-----2----2-2-2-----5---5----4---4---4---|
 ---2----2-----2----2-2-2-----5---5----4---4---4---|

 


 


 [a] [a] [a] [a] [a] [a] [a] [a] 


 

 
 ---4----4--4----------------------------------------------|
 ---3----3--3-----5----5--5-----9----9--9-----10---10-10---|
 ---4----4--4-----4----4--4-----7----7--7-----9----9--7----|
 ---4----4--4-----2----2--2-----5----5--5-----7----7--7----|
 ---2----2--2-----2----2--2-----5----5--5-----7----7--7----|
 -----------------2----2--2-----5----5--5-----7----7--7----|

 


 


 [a] [a] [a] -[a]- [a] [a]


 

 
 ---2----2-----2----------------------------||
 ---3----3-----3----------------------------||
 ---4----4-----4----4-4-4-----7---7----6----||
 ---2----2-----2----2-2-2-----5---5----4----||
 ---2----2-----2----2-2-2-----5---5----4----||
 ---2----2-----2----2-2-2-----5---5----4----||

 


 


 Track B - Guitar B (Softly)


 


 

 
 ||-------------------------------------------------|
 ||-------3----------5------------------------------|
 ||-------------------------------7---------9-------|
 ||-----4----4---------4^6------5---9-----7---11----|
 ||---2--------(2)----------------------------------|
 ||----------------2----------5---------7-----------|
 -------------------------------------------------|
 ------8-7-------------3--------------------------|
 ----------9---------4----4----------6-3-4-6------|
 ---9--------9-----5------------4-----------------|
 -------------------------------------------------|
 -------------------------------------------------|
 -------------------------------------------------|
 -------3----------5------------------------------|
 -------------------------------7---------9-------|
 -----4----4---------4^6------5---9-----7---11----|
 ---2--------(2)----------------------------------|
 ----------------2----------5---------7-----------|
 -------------------------------------------------||
 ------8-7-------------3-------------2------------||
 ----------9---------4----4-------3---------------||
 ---9--------9-----5-----------4------------------||
 -------------------------------------------------||
 -------------------------------------------------||
 ----------------------------------------------------------------------

 


 Fill 4 - 01:05


 


 [a] [\] [a] [\] 


 

 
 ||---2--2------2--2---------|
 ||---3--3------3--3---------|
 ||---4--4------4--4---------|
 ||---4--4------4--4---5^4---|
 ||---2--x------2--x---------|
 ||--------------------------|

 


 


 [a] [\] [a] [\] 


 

 
 ---2--2---------2--2--------------|
 ---3--3---------3--3----------7---|
 ---4--4---------4--4----------6---|
 ---4--4---5^4---4--4---5^4----4---|
 ---2--x---------2--x----------4---|
 ------------------------------4---|

 


 


 [a] [\] [a] [\] 


 

 
 ---2--2---------2--2----------|
 ---3--3---------3--3----------|
 ---4--4---------4--4----------|
 ---4--4---5^4---4--4---5^4----|
 ---2--x---------2--x----------|
 ------------------------------|

 


 


 [a] [\] [a] [\] 


 

 
 ---2--2---------2--2--------------||
 ---3--3---------3--3----------7---||
 ---4--4---------4--4----------6---||
 ---4--4---5^4---4--4---5^4----4---||
 ---2--x---------2--x----------4---||
 ------------------------------4---||
 ----------------------------------------------------------------------

 


 Fill 5 - 01:29


 


 

 
 ||---7-------------------------------|
 ||---8-----------8-----------7-------|
 ||---9-----------7-----------6-------|
 ||---9-----------5-----------4-------|
 ||---7-----------5-----------4-------|
 ||---------------5-----------4-------|

 


 


 [crs].................


 

 
 ----------------------------||
 ----------------------------||
 ----------------------------||
 ---4--4--4--4--4--4--4--4---||
 ---4--4--4--4--4--4--4--4---||
 ---4--4--4--4--4--4--4--4---||
 ----------------------------------------------------------------------

 


 Fill 6 - 01:38


 


 Track A - Guitar A


 


 [a] [a] [a] [a] [a] [a] [a] [a] 


 

 
 ||---4----4--4----------------------------------------------|
 ||---3----3--3-----5----5--5-----9----9--9-----10---10-10---|
 ||---4----4--4-----4----4--4-----7----7--7-----9----9--7----|
 ||---4----4--4-----2----2--2-----5----5--5-----7----7--7----|
 ||---2----2--2-----2----2--2-----5----5--5-----7----7--7----|
 ||-----------------2----2--2-----5----5--5-----7----7--7----|

 


 


 [a] [a] [a] -[a]- [a] [a]


 

 
 ---2----2-----2-----------------------------------|
 ---3----3-----3-----------------------------------|
 ---4----4-----4----4-4-4-----7---7----6---6---6---|
 ---2----2-----2----2-2-2-----5---5----4---4---4---|
 ---2----2-----2----2-2-2-----5---5----4---4---4---|
 ---2----2-----2----2-2-2-----5---5----4---4---4---|

 


 


 [a] [a] [a] [a] [a] [a] [a] [a] 


 

 
 ---4----4--4----------------------------------------------|
 ---3----3--3-----5----5--5-----9----9--9-----10---10-10---|
 ---4----4--4-----4----4--4-----7----7--7-----9----9--7----|
 ---4----4--4-----2----2--2-----5----5--5-----7----7--7----|
 ---2----2--2-----2----2--2-----5----5--5-----7----7--7----|
 -----------------2----2--2-----5----5--5-----7----7--7----|

 


 


 [a] [a] [a] -[a]- [a] [a]


 

 
 ---2----2-----2----------------------------||
 ---3----3-----3----------------------------||
 ---4----4-----4----4-4-4-----7---7----6----||
 ---2----2-----2----2-2-2-----5---5----4----||
 ---2----2-----2----2-2-2-----5---5----4----||
 ---2----2-----2----2-2-2-----5---5----4----||

 


 


 [a] [a] [a] [a] [a] [a] [a] [a] 


 

 
 ||---4----4--4----------------------------------------------|
 ||---3----3--3-----5----5--5-----9----9--9-----10---10-10---|
 ||---4----4--4-----4----4--4-----7----7--7-----9----9--7----|
 ||---4----4--4-----2----2--2-----5----5--5-----7----7--7----|
 ||---2----2--2-----2----2--2-----5----5--5-----7----7--7----|
 ||-----------------2----2--2-----5----5--5-----7----7--7----|

 


 


 [a] [a] [a] -[a]- [a] [a]


 

 
 ---2----2-----2-----------------------------------|
 ---3----3-----3-----------------------------------|
 ---4----4-----4----4-4-4-----7---7----6---6---6---|
 ---2----2-----2----2-2-2-----5---5----4---4---4---|
 ---2----2-----2----2-2-2-----5---5----4---4---4---|
 ---2----2-----2----2-2-2-----5---5----4---4---4---|

 


 


 [a] [a] [a] [a] [a] [a] [a] [a] 


 

 
 ---4----4--4----------------------------------------------|
 ---3----3--3-----5----5--5-----9----9--9-----10---10-10---|
 ---4----4--4-----4----4--4-----7----7--7-----9----9--7----|
 ---4----4--4-----2----2--2-----5----5--5-----7----7--7----|
 ---2----2--2-----2----2--2-----5----5--5-----7----7--7----|
 -----------------2----2--2-----5----5--5-----7----7--7----|

 


 


 [a] [a] [a] -[a]- [a] [a]


 

 
 ---2----2-----2----------------------------||
 ---3----3-----3----------------------------||
 ---4----4-----4----4-4-4-----7---7----6----||
 ---2----2-----2----2-2-2-----5---5----4----||
 ---2----2-----2----2-2-2-----5---5----4----||
 ---2----2-----2----2-2-2-----5---5----4----||

 


 


 Track B - Guitar B (Softly)


 


 

 
 ||-------------------------------------------------|
 ||-------3----------5------------------------------|
 ||-------------------------------7---------9-------|
 ||-----4----4---------4^6------5---9-----7---11----|
 ||---2--------(2)----------------------------------|
 ||----------------2----------5---------7-----------|
 -------------------------------------------------|
 ------8-7-------------3--------------------------|
 ----------9---------4----4----------6-3-4-6------|
 ---9--------9-----5------------4-----------------|
 -------------------------------------------------|
 -------------------------------------------------|
 -------------------------------------------------|
 -------3----------5------------------------------|
 -------------------------------7---------9-------|
 -----4----4---------4^6------5---9-----7---11----|
 ---2--------(2)----------------------------------|
 ----------------2----------5---------7-----------|
 -------------------------------------------------||
 ------8-7-------------3-------------2------------||
 ----------9---------4----4-------3---------------||
 ---9--------9-----5-----------4------------------||
 -------------------------------------------------||
 -------------------------------------------------||
 ||-------------------------------------------------|
 ||-------3----------5------------------------------|
 ||-------------------------------7---------9-------|
 ||-----4----4---------4^6------5---9-----7---11----|
 ||---2--------(2)----------------------------------|
 ||----------------2----------5---------7-----------|
 -------------------------------------------------|
 ------8-7-------------3--------------------------|
 ----------9---------4----4----------6-3-4-6------|
 ---9--------9-----5------------4-----------------|
 -------------------------------------------------|
 -------------------------------------------------|
 -------------------------------------------------|
 -------3----------5------------------------------|
 -------------------------------7---------9-------|
 -----4----4---------4^6------5---9-----7---11----|
 ---2--------(2)----------------------------------|
 ----------------2----------5---------7-----------|
 -------------------------------------------------||
 ------8-7-------------3-------------2------------||
 ----------9---------4----4-------3---------------||
 ---9--------9-----5-----------4------------------||
 -------------------------------------------------||
 -------------------------------------------------||
 ----------------------------------------------------------------------

 


 Fill 7 - (Bridge B) - 02:21


 


 Track A - Guitar A (Softly)


 


 

 
 ||-----------------------------------------------------|
 ||--------------3----2------------------3----2---------|
 ||---4-[~]------4----3-------4-[~]------4----3---------|
 ||---2-[~]------5----4-------2-[~]------5----4---------|
 ||-----------------------------------------------------|
 ||-----------------------------------------------------|

 


 


 Track B - Guitar B (Softly)


 


 

 
 ||---------2---2---2---2--------------------2---2---2---2---------------|
 ||---3-3-3---3---3---3----------------3-3-3---3---3---3-----------------|
 ||------------------------4[~]--3[b]-----------------------4[~]--3[b]---|
 ||----------------------------------------------------------------------|
 ||----------------------------------------------------------------------|
 ||----------------------------------------------------------------------|

 


 


 Guitar A and B - (02:31)


 

 
 [a] ----[a]--- ---[a]-------------|
 ------------------------------------------------------------|
 ------------------------------------------------------------|
 --4-4-4-----------------------------------------------------|
 --4-4-4--0--0-2--2-2-2--4-5--5-5-5--5-5--8-8-8-8-8-[~]------|
 --2-2-2--0--0-2--2-2-2--4-5--5-5-5--5-5--4-4-4-4-4-[~]------|
 ---------0--0-2--2-2-2--4-5--5-5-5--5-5--4-4-4-4-4-[~]------|
 ----------------------------------------------------------------------

 


 Fill 8 - 02:42


 


 Track A - Guitar A


 


 [a] [a] [a] [a] [a] [a] [a] [a] 


 

 
 ||---4----4--4----------------------------------------------|
 ||---3----3--3-----5----5--5-----9----9--9-----10---10-10---|
 ||---4----4--4-----4----4--4-----7----7--7-----9----9--7----|
 ||---4----4--4-----2----2--2-----5----5--5-----7----7--7----|
 ||---2----2--2-----2----2--2-----5----5--5-----7----7--7----|
 ||-----------------2----2--2-----5----5--5-----7----7--7----|

 


 


 [a] [a] [a] -[a]- [a] [a]


 

 
 ---2----2-----2-----------------------------------|
 ---3----3-----3-----------------------------------|
 ---4----4-----4----4-4-4-----7---7----6---6---6---|
 ---2----2-----2----2-2-2-----5---5----4---4---4---|
 ---2----2-----2----2-2-2-----5---5----4---4---4---|
 ---2----2-----2----2-2-2-----5---5----4---4---4---|

 


 


 [a] [a] [a] [a] [a] [a] [a] [a] 


 

 
 ---4----4--4----------------------------------------------|
 ---3----3--3-----5----5--5-----9----9--9-----10---10-10---|
 ---4----4--4-----4----4--4-----7----7--7-----9----9--7----|
 ---4----4--4-----2----2--2-----5----5--5-----7----7--7----|
 ---2----2--2-----2----2--2-----5----5--5-----7----7--7----|
 -----------------2----2--2-----5----5--5-----7----7--7----|

 


 


 [a] [a] [a] -[a]- [a] [a]


 

 
 ---2----2-----2----------------------------||
 ---3----3-----3----------------------------||
 ---4----4-----4----4-4-4-----7---7----6----||
 ---2----2-----2----2-2-2-----5---5----4----||
 ---2----2-----2----2-2-2-----5---5----4----||
 ---2----2-----2----2-2-2-----5---5----4----||

 


 


 [a] [a] [a] [a] [a] [a] [a] [a] 


 

 
 ||---4----4--4----------------------------------------------|
 ||---3----3--3-----5----5--5-----9----9--9-----10---10-10---|
 ||---4----4--4-----4----4--4-----7----7--7-----9----9--7----|
 ||---4----4--4-----2----2--2-----5----5--5-----7----7--7----|
 ||---2----2--2-----2----2--2-----5----5--5-----7----7--7----|
 ||-----------------2----2--2-----5----5--5-----7----7--7----|

 


 


 [a] [a] [a] -[a]- [a] [a]


 

 
 ---2----2-----2-----------------------------------|
 ---3----3-----3-----------------------------------|
 ---4----4-----4----4-4-4-----7---7----6---6---6---|
 ---2----2-----2----2-2-2-----5---5----4---4---4---|
 ---2----2-----2----2-2-2-----5---5----4---4---4---|
 ---2----2-----2----2-2-2-----5---5----4---4---4---|

 


 


 [a] [a] [a] [a] [a] [a] [a] [a] 


 

 
 ---4----4--4----------------------------------------------|
 ---3----3--3-----5----5--5-----9----9--9-----10---10-10---|
 ---4----4--4-----4----4--4-----7----7--7-----9----9--7----|
 ---4----4--4-----2----2--2-----5----5--5-----7----7--7----|
 ---2----2--2-----2----2--2-----5----5--5-----7----7--7----|
 -----------------2----2--2-----5----5--5-----7----7--7----|

 


 


 [a] [a] [a] -[a]- [a] [a]


 

 
 ---2----2-----2----------------------------||
 ---3----3-----3----------------8-----7-----||
 ---4----4-----4----4-4-4-------7-----6-----||
 ---2----2-----2----2-2-2-------5-----4-----||
 ---2----2-----2----2-2-2-------5-----4-----||
 ---2----2-----2----2-2-2-------5-----4-----|| END.

 


 


 Track B - Guitar B (Softly)


 


 

 
 ||-------------------------------------------------|
 ||-------3----------5------------------------------|
 ||-------------------------------7---------9-------|
 ||-----4----4---------4^6------5---9-----7---11----|
 ||---2--------(2)----------------------------------|
 ||----------------2----------5---------7-----------|
 -------------------------------------------------|
 ------8-7-------------3--------------------------|
 ----------9---------4----4----------6-3-4-6------|
 ---9--------9-----5------------4-----------------|
 -------------------------------------------------|
 -------------------------------------------------|
 -------------------------------------------------|
 -------3----------5------------------------------|
 -------------------------------7---------9-------|
 -----4----4---------4^6------5---9-----7---11----|
 ---2--------(2)----------------------------------|
 ----------------2----------5---------7-----------|
 -------------------------------------------------||
 ------8-7-------------3-------------2------------||
 ----------9---------4----4-------3---------------||
 ---9--------9-----5-----------4------------------||
 -------------------------------------------------||
 -------------------------------------------------||
 ||-------------------------------------------------|
 ||-------3----------5------------------------------|
 ||-------------------------------7---------9-------|
 ||-----4----4---------4^6------5---9-----7---11----|
 ||---2--------(2)----------------------------------|
 ||----------------2----------5---------7-----------|
 -------------------------------------------------|
 ------8-7-------------3--------------------------|
 ----------9---------4----4----------6-3-4-6------|
 ---9--------9-----5------------4-----------------|
 -------------------------------------------------|
 -------------------------------------------------|
 -------------------------------------------------|
 -------3----------5------------------------------|
 -------------------------------7---------9-------|
 -----4----4---------4^6------5---9-----7---11----|
 ---2--------(2)----------------------------------|
 ----------------2----------5---------7-----------|
 -------------------------------------------------||
 ------8-7---------------3------------8-----------||
 ----------9-------------4------------7-----------||
 ---9--------9-----------5------------4-----------||
 -------------------------------------4-----------||
 -------------------------------------4-----------|| END.
 ----------------------------------------------------------------------


Important: The song above is NOT stored on the Chordie server. The original song is hosted at www.guitaretab.com. Chordie works as a search engine and provides on-the-fly formatting. Chordie does not index songs against artists'/composers' will. To remove this song please click here.

This song is displayed as text-only. Transposing and tuning is only available for chordpro-songs.
Rate #2 of 2 versions

Jango Player

Login - add to songbook

SHARE PAGE  



You need to log in to post comments