Guitar Tabs, Chords and Lyrics
Server problems seems to be fixed. Chordie has been experiencing problems with songs disappearing. These issues now seems to be fixed, but still verifying the fix. If you find anything strange, please email admin@chordie.com.


Follow You  Josh Kelley

These chords are a little acurate...its pretty simple
capo 3rd fret
Chords used:
Bb("G") Ebadd9("Cadd9") F("D") Eb("C")
 
 e|---3--------------3------------------2-------------0--------||
 b|---3--------------3------------------3-------------1--------||
 g|---0--------------0------------------2-------------0--------||
 d|---0--------------2------------------0-------------2--------||
 a|---2--------------3------------------0-------------3--------||
 E|---3--------------x------------------x-------------x--------||
 Intro:|G--D--Cadd9--G|(2x) 

Fill-in for 1st time around
 
 e---3-----2-----3-----3----x--x--x---x--x--x---x--x-|
 b---3-----3-----3-----3----x--x--x---x--x--x---x--x-|
 g---0-----2-----0-----0----x--x--x---x--x--x---x--x-|
 d---0-----0-----2-----0----x--x--x---x--x--x---x--x-|
 a---2-----0-----3-----2----x--x--x---x--x--0h2-x--x-|
 E---3-----x-----x-----3----x--x--2h3-x--x--x---x--x-|

Then play the second time around without the fill-in
First Verse:
[G]Everybody [D]tells me I am [Cadd9]wrong
when I know I'm [G]not
[G]something in me [D]moves me to be s[Cadd9]trong
cuz its all I [G]got
Pre-Chorus: Starts at
Josh strums "Cadd9" & "G", but then on "D" he does this. Listen for the picking pattern...
 
 e----2---3---2---0---2---|
 b----3---3---3---3---3---|
 g----2---2---2---2---2---|(Figure 1)*
 d----0---0---0---0---0---|
 a----0---0---0---0---0---|
 E----x---x---x---x---x---| 

Cadd9 G D*
and I don't know what to say
Cadd9 G D*
when you ask me everyday
Cadd9 G D*
my mind won't let me play
Second half of Pre-Chorus:
the thought of you[Cadd9]
the thought of you[D]
Chorus:
so [G]tell me [Cadd9]what you [D]need
I'm [C]getting stronger
if [G]you will [Cadd9]help me [D]see
it [C]won't be long now
its [G]time for [Cadd9]you to l[D]eave and I[C] will
follow you[C]
follow you[D]
Pre-Verse:
-Play Softer-
 
 |G--D--Cadd9--G|(1x)

Second Verse:(Same as First Verse)
now its you that tells me I am wrong
when I know I'm not
who bets you don't listen to this song
its all I got
Pre-Chorus:
and I don't know what to say
when you ask me everyday
my mind won't let me play
Second Half of Pre-Chorus:
the thought of you
thought of you
Chorus:
so tell me what you need
I'm getting stronger
if you will help me see
it won't be long now
its time for you to leave and I will
follow you
follow you
Bridge:
well isn't it gre[C]at
how your [Cadd9]restless on my mind
singing [G]songs of broken lives
D*
to clear you in our minds
well baby its [C]great how [Cadd9]someone let me find
to [G]live around my life
D*
your picture in my mind
D*
your picture in my mind
Solo:
Here are the chords during the solo
|G-Cadd9-D-Cadd9|(4x)
Chorus:)
so tell me what you need
I'm getting stronger
if you will help me see
it won't be long now
its time for you to leave and I will
follow you[Cadd9]
Cadd9 D*
follow you
Cadd9 D*
follow you
Cadd9 D*
follow you
End on G
Enjoy!...Let me know if u hear anything out of whack....Cheers!

Important: The song above is NOT stored on the Chordie server. The original song is hosted at www.guitaretab.com. Chordie works as a search engine and provides on-the-fly formatting. Chordie does not index songs against artists'/composers' will. To remove this song please click here.

Text color:
Chord color:
Chord grids: 
Font size:    
Page size: 

C Cadd9 D G
Rate #1 of 6 versions

Jango Player

Login - add to songbook

SHARE PAGE  




You need to log in to post comments