Guitar Tabs, Chords and Lyrics
Login is temporarily disabled for some users. Do not panic. Will be back in an hour or two. DO NOT REREGISTER!!


Never Walk Away  Journey

JOURNEY ? Never Walk Away
from the Revelation (2008) record
One of the best songs I know... how do these guys do it?! :)
Main riff:
 
 e------------------------------------|
 B------9-9-10-10-9-9-7-7-5-5-4-4-4-2-|
 G------9-9--9--9-9-9-8-8-6-6-4-4-4-2-|
 D------------------------------------|
 A------------------------------------|
 E-0----------------------------------|
 e-0--0--------------------------|
 B-2--2-5-4--4-4-4--4-5/7-5------|
 G-2--2-6-4--4-4-4--4-6/8-6--4-2-|
 D-------------6-6--6-7/9-7--6-4-|
 A-------------------------------|
 E-------------------------------|

Intro guitar solo:
 
 e-----------------------------|-12h14---(14)b(16)r(14)-12---14--16--|
 B--------------------------12-|-------------------------------------|
 G-14b(16)r(14)-13----13-14----|-------------------------------------|
 D-----------------------------|-------------------------------------|
 A-----------------------------|-------------------------------------|
 E-----------------------------|-------------------------------------|
 e-17b(19)-----17--16-----------16-14-12-------12-------|
 B---------------------17b(19)-----------16-14----16-14-|
 G------------------------------------------------------|
 D------------------------------------------------------|
 A------------------------------------------------------|
 E------------------------------------------------------|
 e--------------------------------------12-------17----16----|-19-----|
 B-12--------------------------------12-------12----------17-|--------|
 G----14-13-11------------------9-13-------------------------|--------|
 D-------------14-13-11-------9------------14----------------|--------|
 A----------------------14-----------------------------------|--------|
 E-----------------------------------------------------------|--------|

Verse 1:
[E]So young in love they couldn't wait
[A]Said their vows had to run away
C#m A B w/Fill 1
Suddenly they felt their lives had changed
[E]They believed, their hearts were strong
[A]Just to find they couldn't get along
C#m A B w/Fill 2
The dream they shared had slowly come undone
Fill 1:
 
 e-----------------|
 B-4---5---4-2-----|
 G---4---4-----4---|
 D-----------------|
 A-----------------|
 E-----------------|

Fill 2:
 
 e-----------------|-----------------|
 B-4---5---4-2-----|-7---5---4-2-----|
 G---4---4-----4---|---4---4-----4---|
 D-----------------|-----------------|
 A-----------------|-----------------|
 E-----------------|-----------------|

Chorus:
[G]Will she go or will she stay
[C]Fool herself for one more day
[Em]Don't give up - never walk a[C]way[D]
[G]Love's the promise that he made
[C]In his heart it still remains
[Em]Don't give up - never walk a[C]way[D]
Verse 2:
[E]Had to meet somewhere half way
[A]Heart to heart and face to face
C#m A B w/Fill 1
Compromise - a price they had to pay
[E]Cared enough to stand her ground
[A]Screamed and shouted 'til the walls came down
C#m A B w/Fill 2
Worth the fight to see a brand new day
Solo rhythm:
B, G#m, A, E
B, G#m, A, E, B
Outro chords:
G, Em, F, C, D

Important: The song above is NOT stored on the Chordie server. The original song is hosted at www.guitaretab.com. Chordie works as a search engine and provides on-the-fly formatting. Chordie does not index songs against artists'/composers' will. To remove this song please click here.

Text color:
Chord color:
Chord grids: 
Font size:    
Page size: 

A C D E Em G
Rate #2 of 6 versions

Login - add to songbook

SHARE PAGE  



You need to log in to post comments