Guitar Tabs, Chords and Lyrics
Login is temporarily disabled for some users. Do not panic. Will be back in an hour or two. DO NOT REREGISTER!!


Where Did I Lose Your Love  Journey

JOURNEY ? Where Did I Lose Your Love
from the Revelation (2008) record
Intro:
 
 e--------|--------|----------|
 B--------|--------|----------|
 G--------|--------|----------|
 D-6------|-3------|-6-----8--|
 A-6------|--------|-6-----8--|
 E-4------|-1------|-4-----6--|

Main riff:
 
 e--------------------|------------------|
 B-------8---9---11---|------------------|
 G---------8---8----8-|-10-8-----8---8-7-|
 D-10-10--------------|------8-6---8-----|
 A--------------------|------------------|
 E--------------------|------------------|
 e--------------------|------------------|
 B-------8---9---11---|-8----------------|
 G---------8---8----8-|---8---10-----8-7-|
 D-10-10--------------|-----8------6-----|
 A--------------------|------------------|
 E--------------------|------------------|
 e--------------------|------------------|
 B-------8---9---11---|------------------|
 G---------8---8----8-|-10-8-----8---8-7-|
 D-10-10--------------|------8-6---8-----|
 A--------------------|------------------|
 E--------------------|------------------|
 e--------------------|-----------------|
 B-------8---9---11---|-11----9-8-------|
 G---------8---8----8-|-----------10----|
 D-10-10--------------|-----------------|
 A--------------------|-----------------|
 E--------------------|-----------------|

Verse 1:
[Cm] Des[Eb]perately [Bb]falling
[Cm] Fee[Eb]ling our [Bb]love set us [Fm]free
[Cm] We were be[Eb]tter to[Bb]gether
[Cm] Be[Eb]lieved it was all [Bb]meant to [Fm]be
 
 e--------------------|------------------|
 B-------8---9---11---|------------------|
 G---------8---8----8-|-10-8-----8---8-7-|
 D-10-10--------------|------8-6---8-----|
 A--------------------|------------------|
 E--------------------|------------------|

Stay as one forever
 
 e--------------------|------------------|
 B-------8---9---11---|-8----------------|
 G---------8---8----8-|---8---10-----8-7-|
 D-10-10--------------|-----8----8-6-----|
 A--------------------|------------------|
 E--------------------|------------------|

The band of gold would always prevail
 
 e--------------------|------------------|
 B-------8---9---11---|------------------|
 G---------8---8----8-|-10-8-----8---8-7-|
 D-10-10--------------|------8-6---8-----|
 A--------------------|------------------|
 E--------------------|------------------|

Happy in the moment
 
 e--------------------|------------------|
 B-------8---9---11---|-8----------------|
 G---------8---8----8-|---8---10-----8-7-|
 D-10-10--------------|-----8----8-6-----|
 A--------------------|------------------|
 E--------------------|------------------|

Life betrays one fairytale
[Bb] Memories time cannot e[Db]rase I still see your face
Chorus:
[Fm] Where did I [Db]lose your love
You'll [Eb]always be the [C]question in my heart
[Fm] How can I [Db]make you stay
I [Eb]still regret the [C]night you walked away
[Fm] Why all we [Eb]shared was not [Bb/D]enough
[Db]Where did I lose your love
Verse 2:
[Cm] Ne[Eb]ver saw it [Bb]coming
[Cm] You [Eb]left [Bb]so sudden[Fm]ly
 
 e--------------------|------------------|
 B-------8---9---11---|------------------|
 G---------8---8----8-|-10-8-----8---8-7-|
 D-10-10--------------|------8-6---8-----|
 A--------------------|------------------|
 E--------------------|------------------|

What was it that scared you
 
 e--------------------|------------------|
 B-------8---9---11---|-8----------------|
 G---------8---8----8-|---8---10-----8-7-|
 D-10-10--------------|-----8----8-6-----|
 A--------------------|------------------|
 E--------------------|------------------|

Your world what I couldn't see
[Bb] Emotions time cannot e[Db]rase I still see your face
Repeat chorus
Guitar solo:
 
 e-----------15--------18--|-15--------------------------------------|
 B-------18----------------|------16----18---15b(16)r(15)---------15-|
 G-17--------------17------|---------17-------------------15---17----|
 D-------------------------|-----------------------------------------|
 A-------------------------|-----------------------------------------|
 E-------------------------|-----------------------------------------|
 e-------------15--------18b(20)---|--solo-run-in-C-minor--|
 B-------18------------------------|-----------------------|
 G-17-------17-------17------------|---I-suggest-you-do----|
 D---------------------------------|---your-own-thing-:)---|
 A---------------------------------|-----------------------|
 E---------------------------------|-----------------------|

Bridge:
[Cm] So far from each [Gm]other
[Ab] So close to happi[Bb]ness
[Cm] I'll be there to re[Gm]mind you
[Ab] Love forgives but never forgets
[Bb] Emotions time cannot e[Db]rase I still see your face
Outro:
repeat Fm, Db, Eb, C
then play
 
 e--------|--------|
 B--------|--------|
 G--------|--------|
 D-6------|-3------|
 A-6------|--------|
 E-4------|-1------| fade out...


Important: The song above is NOT stored on the Chordie server. The original song is hosted at www.guitaretab.com. Chordie works as a search engine and provides on-the-fly formatting. Chordie does not index songs against artists'/composers' will. To remove this song please click here.

Text color:
Chord color:
Chord grids: 
Font size:    
Page size: 

Ab Bb Bb/D C Cm Db Eb Fm Gm
Rate #1 of 2 versions

Login - add to songbook

SHARE PAGE  



You need to log in to post comments