Guitar Tabs, Chords and Lyrics
Login is temporarily disabled for some users. Do not panic. Will be back in an hour or two. DO NOT REREGISTER!!


Faith in the Heartland  Journey

JOURNEY ? Faith In The Heartland
from the Revelation (2008) record
Intro:
 
 e-0--0--0--0-0--0-0--0--0-0-|
 B-0--0--0--0-0--0-0--0--0-0-|
 G-4--4--4--4-4--4-4--4--4-4-|
 D-4--4--4--4-2--2-2--2--2-2-|
 A-2--2--2--2-2--2-2--2--2-2-|
 E---------------------------|4x

Intro solo:
 
 e------------------------------------------|
 B----------------------------------------9-|
 G------9b(11)r(9)b(11)-9b(11)---9---9-11---|
 D-9----------------------------------------|
 A------------------------------------------|
 E------------------------------------------|
 e--------------12---10p9----------|
 B-10---9-----------------12---10--|
 G----------9----------------------|
 D---------------------------------|
 A---------------------------------|
 E---------------------------------|
 e---------12b(14)r(12)b(14)-12b(14)---12---12/14/16-|
 B-12-----x------------------------------------------|
 G-------x-------------------------------------------|
 D---------------------------------------------------|
 A---------------------------------------------------|
 E---------------------------------------------------|
 e-16b(17)---16---12-------------------------------------------|
 B---------------------14---(14)b(15)r(14)---(14)b(15)r(14)----|
 G-------------------------------------------------------------|
 D-------------------------------------------------------------|
 A-------------------------------------------------------------|
 E-------------------------------------------------------------|

Verse 1:
[B]He goes to work in a [E]brand new dawn
With the [D]early morning [A]sunrise
[B]He's got his dream and he's [E]holding on
It's getting [D]harder every [A]day
[B]He loves a girl who [E]speaks her mind
Don't always [D]look at life the [A]same way
[B]Sharing truth that will [E]heal in time
Chorus 1:
They [A]want to believe something [D]real... still they're searching
They're [F#m]keeping the faith in the [D]heartland to[E]night
Intro solo
Verse 2:
[B]Time moves on as the [E]fading town
As they [D]struggle with the [A]changes
[B]The stores have closed, friends have [E]moved away
Now it's [D]hope that sees them [A]through
[B]The kids have grown but they'll [E]see them all
At the [D]Sunday congre[A]gation
[B]Sharing dreams truth will [E]heal in time
Chorus 2:
They [A]want to believe something [D]real... still they're searching
They're [F#m]keeping the faith in the [D]heartland to[E]night
It's [A]words that divide them... it's [D]love that defines them
They're [F#m]keeping the faith in the [D]heartland to[E]night
Bridge:
[C]In our darkest hour, oh, we [G]look to the sky
[Bb]With a silent prayer... believe that [F]God's on our side
[G]In a land where freedom rings and [D]where eagles fly
Intro
Solo rhythm:
E, G, D, A (3x)
E, G, A
Before last chorus play:
 
 e---------12b(14)r(12)b(14)-12b(14)---12-----16b(17)--16----|
 B-12-----x----------------------------------x---------------|
 G-------x----------------------------------x----------------|
 D-----------------------------------------------------------|
 A-----------------------------------------------------------|
 E-----------------------------------------------------------|

Chorus 2
After last chorus:
[A] [D] Ooh, I just want to be[F#m]lieve it[D] [E]
[A] Give me some[D]thing to believe in
We all need [F#m]something to believe in, [D]ooh, to[E]night
Break:
 
 e-----------------------------|----------------------------------|
 B---------------3-------------|----------------------------------|
 G-4--x-x--------2--x-x-2--x-x-|--------5--x-x--------4-----------|
 D-4--x-x-2--x-x-0--x-x-2--x-x-|-5--x-x-5--x-x-4--x-x-4--2--------|
 A-2--x-x-2--x-x----x-x-0--x-x-|-5--x-x-3--x-x-4--x-x-2--2--------|
 E--------0--x-x---------------|-3--x-x--------2--x-x----0--------|
 e-----------------------------|--------------------------------|
 B---------------3-------------|--------------------------------|
 G-4--x-x--------2--x-x-2--x-x-|---------5----------4-----------|
 D-4--x-x-2--x-x-0--x-x-2--x-x-|-x-x-5---5---4--x-x-4--2--------|
 A-2--x-x-2--x-x----x-x-0--x-x-|-x-x-5---3---4--x-x-2--2--------|
 E--------0--x-x---------------|-x-x-3-------2--x-x----0--------|

Outro:
E, G, D, A (2x)
Got [E]faith... got [G]dreams... be[D]lieve[A]
[E] We're [G]keeping the faith to[D]night [A]
E, G, D, A (2x)
[E]  
Ending:
 
 e----------|
 B----------|
 G-9-9-9----|
 D-9-9-9----|
 A-7-7-7----|
 E----------|


Important: The song above is NOT stored on the Chordie server. The original song is hosted at www.guitaretab.com. Chordie works as a search engine and provides on-the-fly formatting. Chordie does not index songs against artists'/composers' will. To remove this song please click here.

Text color:
Chord color:
Chord grids: 
Font size:    
Page size: 

A B Bb C D E F F#m G
Rate #1 of 2 versions

Login - add to songbook

SHARE PAGE  




You need to log in to post comments