Guitar Tabs, Chords and Lyrics
Update 25:10. 13:00. Site is back up running again. Songbooks are recovered. Woring on getting search back up..


Donâ??t Stop Believinâ??   Journey

 
 -----------------------------------------------------------------------------

 


 Don't Stop Belivin' - Journey


 

 
 -----------------------------------------------------------------------------

 


 


 This is my fingerstyle arrangement of the song. I feel that it is easier to play it on a


 string guitar, but it doesn't matter that much.


 


 The low part is the bass, with the first note repeated every beat to simulate the piano


 The higher part is the vocal. I tried to follow the vocal line exactly, but you should


 listen to the song and look at the lyrics to get the real feel of it.


 


 I left out the part with the guitar solo after the second chorus. Since it is


 the same as the vocal melody in the finale, it doesn't really fit.


 


 Time Signature: 4/4


 Tuning: Standard


 


 If 2 notes are right next to each other(no "-" between them), use a pull off. Inserting


 "p" messes up the timing, so i had to leave them out.


 


 Intro


 


 [1] [2] [3] [4] [1] [2] [3] [4] [1] [2] [3] [4] [1] [2] [3] [4]  

 
 E-|----------------|----------------|----------------|----------------|
 B-|----------------|----------------|----------------|----------------|
 G-|----------------|----------------|----------------|----------------|
 D-|----------------|----------------|----------------|----------------|
 A-|----------------|2---2---2-4-6---|4---4---4-6-7---|0---0---0-6-7---|
 E-|0---0---0-2-4---|----------------|----------------|----------------|

 


 


 [1] [2] [3] [4] [1] [2] [3] [4] [1] [2] [3] [4] [1] [2] [3] [4]  

 
 E-|----------------|----------------|----------------|----------------|
 B-|----------------|----------------|----------------|----------------|
 G-|----------------|----------------|----------------|----------------|
 D-|----------------|------------1---|----------------|----------------|
 A-|----------------|2---2---2-4-----|----------------|0---0---0---0---|
 E-|0---0---0-2-4---|----------------|4---4---4---4---|----------------|

 


 


 Verse


 


 [1] [2] [3] [4] [1] [2] [3] [4] [1] [2] [3] [4] [1] [2] [3] [4]  

 
 E-|------------4-0-|2-2---4---------|--------0-0-0-0-|7---7-4---------|
 B-|----------------|----------------|----------------|----------7-----|
 G-|----------------|----------------|----------------|----------------|
 D-|----------------|----------------|----------------|----------------|
 A-|----------------|2---2---2-4-6---|4---4---4-6-7---|0---0---0-6-7---|
 E-|0---0---0-2-4---|----------------|----------------|----------------|

 


 


 [1] [2] [3] [4] [1] [2] [3] [4] [1] [2] [3] [4] [1] [2] [3] [4]  

 
 E-|------------4-0-|2-2---4---2---0-|2-----4-----0---|----------------|
 B-|----------------|----------------|----------------|----------------|
 G-|----------------|----------------|----------------|----------------|
 D-|----------------|------------1---|----------------|----------------|
 A-|----------------|2---2---2-4-----|----------------|0---0---0---0---|
 E-|0---0---0-2-4---|----------------|4---4---4---4---|----------------|

 


 


 [1] [2] [3] [4] [1] [2] [3] [4] [1] [2] [3] [4] [1] [2] [3] [4]  

 
 E-|------------4-0-|2-2---4---------|--------0-0-0-0-|7---7-4---------|
 B-|----------------|----------------|----------------|----------7-----|
 G-|----------------|----------------|----------------|----------------|
 D-|----------------|----------------|----------------|----------------|
 A-|----------------|2---2---2-4-6---|4---4---4-6-7---|0---0---0-6-7---|
 E-|0---0---0-2-4---|----------------|----------------|----------------|

 


 


 [1] [2] [3] [4] [1] [2] [3] [4] [1] [2] [3] [4] [1] [2] [3] [4]  

 
 E-|------------4-0-|2-2---4---2---0-|2-----4-----0---|----------------|
 B-|----------------|----------------|----------------|----------------|
 G-|----------------|----------------|----------------|----------------|
 D-|----------------|------------1---|----------------|----------------|
 A-|----------------|2---2---2-4-----|----------------|0---0---0---0---|
 E-|0---0---0-2-4---|----------------|4---4---4---4---|----------------|

 


 


 [1] [2] [3] [4] [1] [2] [3] [4] [1] [2] [3] [4] [1] [2] [3] [4]  

 
 E-|----------------|----------------|----------------|----------------|
 B-|----------------|----------------|----------------|----------------|
 G-|----------------|----------------|----------------|----------------|
 D-|----------------|----------------|----------------|----------------|
 A-|----------------|2---2---2-4-6---|4---4---4-6-7---|0---0---0-6-7---|
 E-|0---0---0-2-4---|----------------|----------------|----------------|

 


 


 [1] [2] [3] [4] [1] [2] [3] [4] [1] [2] [3] [4] [1] [2] [3] [4]  

 
 E-|----------------|----------------|----------------|----------------|
 B-|----------------|----------------|----------------|----------------|
 G-|----------------|----------------|----------------|----------------|
 D-|----------------|------------1---|----------------|----------------|
 A-|----------------|2---2---2-4-----|----------------|0---0---0---0---|
 E-|0---0---0-2-4---|----------------|4---4---4---4---|----------------|

 


 


 [1] [2] [3] [4] [1] [2] [3] [4] [1] [2] [3] [4] [1] [2] [3] [4]  

 
 E-|------4-4-4-4-4-|4-2--20---------|--------0-0-0-0-|7---7-4---------|
 B-|----------------|----------------|----------------|----------7-----|
 G-|----------------|----------------|----------------|----------------|
 D-|----------------|----------------|----------------|----------------|
 A-|----------------|2---2---2-4-6---|4---4---4-6-7---|0---0---0-6-7---|
 E-|0---0---0-2-4---|----------------|----------------|----------------|

 


 


 [1] [2] [3] [4] [1] [2] [3] [4] [1] [2] [3] [4] [1] [2] [3] [4]  

 
 E-|----4-4-4-2-2-0-|2---2-4---2-0---|2---4-2-----4-2-|----4-2---------|
 B-|----------------|----------------|----------------|----------------|
 G-|----------------|----------------|----------------|----------------|
 D-|----------------|------------1---|----------------|----------------|
 A-|----------------|2---2---2-4-----|----------------|0-0-0-0-0-0-0-0-|
 E-|0---0---0-2-4---|----------------|4-4-4-4-4-4-4-4-|----------------|

 


 


 Chorus


 


 [1] [2] [3] [4] [1] [2] [3] [4] [1] [2] [3] [4] [1] [2] [3] [4]  

 
 E-|2-----0---------|2-----4---------|--------0-0-0-0-|7---7-4---2-----|
 B-|----------------|----------------|----------------|----------------|
 G-|----------------|----------------|----------------|----------------|
 D-|----------------|----------------|----------------|----------------|
 A-|0-0-0-0-0-0-0-0-|0-0-0-0-0-0-0-0-|----------------|----------------|
 E-|----------------|----------------|0-0-0-0-0-0-0-0-|0-0-0-0-0-0-0-0-|

 


 


 [1] [2] [3] [4] [1] [2] [3] [4] [1] [2] [3] [4] [1] [2] [3] [4]  

 
 E-|2-----0---------|2-----4---2-0---|2---4-0---------|----------------|
 B-|----------------|----------------|----------------|----------------|
 G-|----------------|----------------|----------------|----------------|
 D-|----------------|----------------|----------------|----------------|
 A-|0-0-0-0-0-0-0-0-|0-0-0-0-0-0-0-0-|----------------|----------------|
 E-|----------------|----------------|0-0-0-0-0-0-0-0-|0-0-0-0-0-0-0-0-|

 


 


 [1] [2] [3] [4] [1] [2] [3] [4] [1] [2] [3] [4] [1] [2] [3] [4]  

 
 E-|2-----0---------|2-----4---------|--------0-0-0-0-|7---7-4---2-0---|
 B-|----------------|----------------|----------------|----------------|
 G-|----------------|----------------|----------------|----------------|
 D-|----------------|----------------|----------------|----------------|
 A-|0-0-0-0-0-0-0-0-|0-0-0-0-0-0-0-0-|----------------|----------------|
 E-|----------------|----------------|0-0-0-0-0-0-0-0-|0-0-0-0-0-0-0-0-|

 


 


 [1] [2] [3] [4] [1] [2] [3] [4] [1] [2] [3] [4] [1] [2] [3] [4]  

 
 E-|2-----0---------|2-----4---2-0---|7---------------|----------------|
 B-|----------------|----------------|----------------|----------------|
 G-|----------------|----------------|----------------|----------------|
 D-|----------------|----------------|----------------|----------------|
 A-|0-0-0-0-0-0-0-0-|0-0-0-0-0-0-0-0-|----------------|------0---------|
 E-|----------------|----------------|7-----0---------|7---------------|

 


 


 Verse


 


 [1] [2] [3] [4] [1] [2] [3] [4] [1] [2] [3] [4] [1] [2] [3] [4]  

 
 E-|----------------|----------------|----------------|----------------|
 B-|----------------|----------------|----------------|----------------|
 G-|----------------|----------------|----------------|----------------|
 D-|----------------|----------------|----------------|----------------|
 A-|----------------|2---2---2-4-6---|4---4---4-6-7---|0---0---0-6-7---|
 E-|0---0---0-2-4---|----------------|----------------|----------------|

 


 


 [1] [2] [3] [4] [1] [2] [3] [4] [1] [2] [3] [4] [1] [2] [3] [4]  

 
 E-|----------------|----------------|----------------|----------------|
 B-|----------------|----------------|----------------|----------------|
 G-|----------------|----------------|----------------|----------------|
 D-|----------------|------------1---|----------------|----------------|
 A-|----------------|2---2---2-4-----|----------------|0---0---0-6-7---|
 E-|0---0---0-2-4---|----------------|4---4---4---4---|----------------|

 


 


 [1] [2] [3] [4] [1] [2] [3] [4] [1] [2] [3] [4] [1] [2] [3] [4]  

 
 E-|----4-4-4-----0-|2---4-20--------|--------0-0-0-0-|7---7-4---------|
 B-|----------------|----------------|----------------|----------7-----|
 G-|----------------|----------------|----------------|----------------|
 D-|----------------|----------------|----------------|----------------|
 A-|----------------|2---2---2-4-6---|4---4---4-6-7---|0---0---0-6-7---|
 E-|0---0---0-2-4---|----------------|----------------|----------------|

 


 


 [1] [2] [3] [4] [1] [2] [3] [4] [1] [2] [3] [4] [1] [2] [3] [4]  

 
 E-|----4-4-4-2-2-0-|2---2-4---2-0---|2-----4-----0---|----------------|
 B-|----------------|----------------|----------------|----------------|
 G-|----------------|----------------|----------------|----------------|
 D-|----------------|------------1---|----------------|----------------|
 A-|----------------|2---2---2-4-----|----------------|0---0---0---0---|
 E-|0---0---0-2-4---|----------------|4---4---4---4---|----------------|

 


 


 [1] [2] [3] [4] [1] [2] [3] [4] [1] [2] [3] [4] [1] [2] [3] [4]  

 
 E-|----4-4-5-4-----|----4-2-2-0-----|--------0-0-0-0-|7---7-4---------|
 B-|----------------|----------------|----------------|----------7-----|
 G-|----------------|----------------|----------------|----------------|
 D-|----------------|----------------|----------------|----------------|
 A-|----------------|2---2---2-4-6---|4---4---4-6-7---|0---0---0-6-7---|
 E-|0---0---0-2-4---|----------------|----------------|----------------|

 


 


 [1] [2] [3] [4] [1] [2] [3] [4] [1] [2] [3] [4] [1] [2] [3] [4]  

 
 E-|--4---7-9---4---|5---4-2---0-----|2---4-2-----4-2-|----4-2---------|
 B-|----------------|----------------|----------------|----------------|
 G-|----------------|----------------|----------------|----------------|
 D-|----------------|------------1---|----------------|----------------|
 A-|----------------|2---2---2-4-----|----------------|0-0-0-0-0-0-0-0-|
 E-|0---0---0-2-4---|----------------|4-4-4-4-4-4-4-4-|----------------|

 


 


 Chorus


 


 [1] [2] [3] [4] [1] [2] [3] [4] [1] [2] [3] [4] [1] [2] [3] [4]  

 
 E-|2-----0---------|2-----4---------|--------0-0-0-0-|7---7-4---2-----|
 B-|----------------|----------------|----------------|----------------|
 G-|----------------|----------------|----------------|----------------|
 D-|----------------|----------------|----------------|----------------|
 A-|0-0-0-0-0-0-0-0-|0-0-0-0-0-0-0-0-|----------------|----------------|
 E-|----------------|----------------|0-0-0-0-0-0-0-0-|0-0-0-0-0-0-0-0-|

 


 


 [1] [2] [3] [4] [1] [2] [3] [4] [1] [2] [3] [4] [1] [2] [3] [4]  

 
 E-|2-----0---------|2-----4---2-0---|2---4-0---------|----------------|
 B-|----------------|----------------|----------------|----------------|
 G-|----------------|----------------|----------------|----------------|
 D-|----------------|----------------|----------------|----------------|
 A-|0-0-0-0-0-0-0-0-|0-0-0-0-0-0-0-0-|----------------|----------------|
 E-|----------------|----------------|0-0-0-0-0-0-0-0-|0-0-0-0-0-0-0-0-|

 


 


 [1] [2] [3] [4] [1] [2] [3] [4] [1] [2] [3] [4] [1] [2] [3] [4]  

 
 E-|2-----0---------|2-----4---------|--------0-0-0-0-|7---7-4---2-0---|
 B-|----------------|----------------|----------------|----------------|
 G-|----------------|----------------|----------------|----------------|
 D-|----------------|----------------|----------------|----------------|
 A-|0-0-0-0-0-0-0-0-|0-0-0-0-0-0-0-0-|----------------|----------------|
 E-|----------------|----------------|0-0-0-0-0-0-0-0-|0-0-0-0-0-0-0-0-|

 


 


 [1] [2] [3] [4] [1] [2] [3] [4] [1] [2] [3] [4] [1] [2] [3] [4]  

 
 E-|2-----0---------|2-----4---2-0---|7---------------|----------------|
 B-|----------------|----------------|----------------|----------------|
 G-|----------------|----------------|----------------|----------------|
 D-|----------------|----------------|----------------|----------------|
 A-|0-0-0-0-0-0-0-0-|0-0-0-0-0-0-0-0-|----------------|------0---------|
 E-|----------------|----------------|7-----0---------|7---------------|

 


 


 Finale


 


 [1] [2] [3] [4] [1] [2] [3] [4] [1] [2] [3] [4] [1] [2] [3] [4]  

 
 E-|5-----4-------2-|5-----4---------|--------4-4-5-7-|9---7-5---4-----|
 B-|----------------|----------------|----------------|----------------|
 G-|----------------|----------------|----------------|----------------|
 D-|----------------|----------------|----------------|----------------|
 A-|----------------|2---2---2-4-6---|4---4---4-6-7---|0---0---0-6-7---|
 E-|0---0---0-2-4---|----------------|----------------|----------------|

 


 


 [1] [2] [3] [4] [1] [2] [3] [4] [1] [2] [3] [4] [1] [2] [3] [4]  

 
 E-|5-----4---------|5-----4---2---0-|7---------------|----------------|
 B-|----------------|----------------|----------------|----------------|
 G-|----------------|----------------|----------------|----------------|
 D-|----------------|------------1---|----------------|----------------|
 A-|----------------|2---2---2-4-----|----------------|0-0-0-0-0-0-0-0-|
 E-|0---0---0-2-4---|----------------|4-4-4-4-4-4-4-4-|----------------|

 


 


 [1] [2] [3] [4] [1] [2] [3] [4] [1] [2] [3] [4] [1] [2] [3] [4]  

 
 E-|5-----4-------2-|5-----4---------|--------4-4-5-7-|9---7-5---4-----|
 B-|----------------|----------------|----------------|----------------|
 G-|----------------|----------------|----------------|----------------|
 D-|----------------|----------------|----------------|----------------|
 A-|----------------|2---2---2-4-6---|4---4---4-6-7---|0---0---0-6-7---|
 E-|0---0---0-2-4---|----------------|----------------|----------------|

 


 


 [1] [2] [3] [4] [1] [2] [3] [4] [1] [2] [3] [4] [1] [2] [3] [4]  

 
 E-|5-----4---------|5-----4---2---0-|7---------------|----------------|
 B-|----------------|----------------|----------------|----------------|
 G-|----------------|----------------|----------------|----------------|
 D-|----------------|------------1---|----------------|----------------|
 A-|----------------|2---2---2-4-----|----------------|0-0-0-0-0-0-0-0-|
 E-|0---0---0-2-4---|----------------|4-4-4-4-4-4-4-4-|----------------|

 


 


 [1] [2] [3] [4] [1] [2] [3] [4] [1] [2] [3] [4] [1] [2] [3] [4]  

 
 E-|5-----4-------2-|5-----4---------|--------4-4-5-7-|9---7-5---4-----|
 B-|----------------|----------------|----------------|----------------|
 G-|----------------|----------------|----------------|----------------|
 D-|----------------|----------------|----------------|----------------|
 A-|----------------|2---2---2-4-6---|4---4---4-6-7---|0---0---0-6-7---|
 E-|0---0---0-2-4---|----------------|----------------|----------------|

 


 


 [1] [2] [3] [4] [1] [2] [3] [4] [1] [2] [3] [4] [1] [2] [3] [4]  

 
 E-|5-----4---------|5-----4---2---0-|7---------------|----------------|
 B-|----------------|----------------|----------------|----------------|
 G-|----------------|----------------|----------------|----------------|
 D-|----------------|------------1---|----------------|----------------|
 A-|----------------|2---2---2-4-----|----------------|0-0-0-0-0-0-0-0-|
 E-|0---0---0-2-4---|----------------|4-4-4-4-4-4-4-4-|----------------|

 


 


 [1] [2] [3] [4]  

 
 E-|5-----4---------|
 B-|----------------|
 G-|----------------|
 D-|----------------|
 A-|----------------|
 E-|----------------|


Important: The song above is NOT stored on the Chordie server. The original song is hosted at www.guitaretab.com. Chordie works as a search engine and provides on-the-fly formatting. Chordie does not index songs against artists'/composers' will. To remove this song please click here.

This song is displayed as text-only. Transposing and tuning is only available for chordpro-songs.
Rate #1 of 7 versions

Login - add to songbook

SHARE PAGE  



You need to log in to post comments