Guitar Tabs, Chords and Lyrics
Major upgrade!! After one year development the new version of Chordie is now online! Please give feedback.


Vulnerable  Juanes

Song: Vulnerable
Album: Fijate Bien
Note: I decided to get un-lazy and write out the whole song instead of just the intro
so I hope you find this useful! I labeled the tablature parts with the chords as well so
know where to use them. For example the first tablature is actually played for all the
the second one for the pre-chorus (Hoy se derrumba mi razón...). And for the
just strum the chords. Enjoy!
Chords used (I use two different Cm when I play this song so I just labeled them as Cm1
Cm2):
[Cm1]  
E|--8-|
B|--8-|
G|--8-|
D|-10-|
A|-10-|
E|--8-|
[A#]  
E|-6-|
B|-6-|
G|-7-|
D|-8-|
A|-8-|
E|-6-|
[Gm]  
E|-3-|
B|-3-|
G|-3-|
D|-5-|
A|-5-|
E|-3-|
[Fm]  
E|-1-|
B|-1-|
G|-1-|
D|-3-|
A|-3-|
E|-1-|
[D#]  
E|-6-|
B|-8-|
G|-8-|
D|-8-|
A|-6-|
E|-x-|
[Dm]  
E|-5-|
B|-6-|
G|-7-|
D|-7-|
A|-5-|
E|-x-|
[Cm2]  
E|-3-|
B|-4-|
G|-5-|
D|-5-|
A|-3-|
E|-x-|
[G]  
E|-3-|
B|-3-|
G|-4-|
D|-5-|
A|-5-|
E|-3-|
[G#]  
E|-4-|
B|-4-|
G|-5-|
D|-6-|
A|-6-|
E|-4-|
[Gm] [Fm]  
 
 E|---------------------------------------------------------|
 B|---------------------------------------------------------|
 G|-3-------3-----3-------3-----1-------1-----1-------1-----|
 D|-------------------------------2-------2-----2-------2---|
 A|---6-5-----6-5---6-5-----6-5-----2-------2-----2-------2-|
 E|-3-----3-------3-----3-------1-----1-------1-----1-------|

[Cm] [A#]  
 
 E|----------------------------------|
 B|----------------------------------|
 G|---------8----------------7-------|
 D|---10---------10------8-------8---|
 A|------10---10----10-----8---8---8-|
 E|-8------------------6-------------|

[Gm]Cierro los ojos y el [Fm]alma
Para no ser vulner[Gm]able
Para no hundirme en la in[Fm]mensa
Prolongación del eng[Gm]año
Hoy me hacen falta pal[Fm]abras
Para decir lo que [Gm]siento
Hoy descubrí que era [Fm]cierto
Lo que me andaban dic[Cm1]iendo
Hoy se derr[A#]umba mi raz[Cm1]ón
Hoy no tend[A#]rás mi bendici[Cm1]ón
Hoy se term[A#]ina la prisi[Cm1]ón
Hoy tocar[Cm1]é la luz
[Gm]No quiero ver lo que p[Fm]ase
Todos los días a[Gm]fuera
No quiero ver que tus b[Fm]alas
Toquen mi piel con su hogu[Cm1]era
Hoy se derr[A#]umba mi raz[Cm1]ón
Hoy no tend[A#]rás mi bendici[Cm1]ón
Hoy se term[A#]ina la prisi[Cm1]ón
Hoy tocar[Cm1]é la luz
[D#]Tu amor es[Dm] frío
Como la [Cm2]sangre de tu [G]mente muerta[G#]
Queriendo volver[A#]se fuego
[D#]Tu amor es[Dm] frío
Como la es[Cm2]carcha que cubr[G]e tu escencia[G#]
Queriendo volv[A#]erse agua
[Gm]Cierro los ojos y el [Fm]alma
Para no ser vulner[Gm]able
Para no hundirme en la in[Fm]mensa
Prolongación del eng[Cm1]año
Hoy se derr[A#]umba mi raz[Cm1]ón
Hoy no tend[A#]rás mi bendici[Cm1]ón
Hoy se term[A#]ina la prisi[Cm1]ón
Hoy tocar[Cm1]é la luz
[D#]Tu amor es[Dm] frío
Como la [Cm2]sangre de tu [G]mente muerta[G#]
Queriendo volver[A#]se fuego
[D#]Tu amor es[Dm] frío
Como la es[Cm2]carcha que cubr[G]e tu escencia[G#]
Queriendo volv[A#]erse agua
[D#]Tu amor es fr[Dm]ío
[Cm2]Tu amor es fr[G]ío
[G#]Tu amor es fr[A#]io
[D#].....[Dm]
[Cm2]Tu amor es fr[G]ío
[G#]Tu amor es fr[A#]io
End with this:
[Gm] [Fm]  
 
 E|---------------------------------------------------------|
 B|---------------------------------------------------------|
 G|-3-------3-----3-------3-----1-------1-----1-------1-----|
 D|-------------------------------2-------2-----2-------2---|
 A|---6-5-----6-5---6-5-----6-5-----2-------2-----2-------2-|
 E|-3-----3-------3-----3-------1-----1-------1-----1-------|
 E|-------|
 B|-------|
 G|-3-----|
 D|-------|

A|---6-5-|
 
 E|-3-----|

And let it ring a little, and you're all done!

Important: The song above is NOT stored on the Chordie server. The original song is hosted at www.guitaretab.com. Chordie works as a search engine and provides on-the-fly formatting. Chordie does not index songs against artists'/composers' will. To remove this song please click here.

Text color:
Chord color:
Chord grids: 
Font size:    
Page size: 

A# Cm D# Dm Fm G G# Gm
Rate #1 of 2 versions

Jango Player

Login - add to songbook

SHARE PAGE  




You need to log in to post comments