Guitar Tabs, Chords and Lyrics
Major upgrade!! After one year development the new version of Chordie is now online! Please give feedback.


A Dios le pido  Juanes

 
 -----------------------------------------------------------------------------

A Dios Le Pido by Juanes
 
 -----------------------------------------------------------------------------

e-mail: juanes_fan1@hotmail.com
/: slide up
these are the chords used throughout the song:
[Am] [E/G#] [G] [D/F#] [Fmaj7] [E]  
 
 |---5---| |---4---| |---3---| |---2---| |---0---| |---0---|
 |---5---| |---5---| |---3---| |---3---| |---1---| |---0---|
 |---5---| |---4---| |---4---| |---2---| |---2---| |---1---|
 |---7---| |---6---| |---5---| |---4---| |---3---| |---2---|
 |---7---| |---7---| |---5---| |---5---| |---0---| |---2---|
 |---5---| |---4---| |---3---| |---2---| |---1---| |---0---|

here's my version of A Dios Le Pido. this is another great song by Juanes. this part
plays as the intro and in the middle of the song(its not complete!!!!)
 
 |---5--x--5--5--x--8--8--8--x--5--5--5--x--5--5----|
 |---5--x--5--5--x--5--5--5--x--5--5--5--x--5--5----|
 |---5--x--5--5--x--5--5--5--x--5--5--5--x--5--5----|
 |---5--x--5--5--x--5--5--5--x--5--5--5--x--5--5----|
 |--------------------------------------------------|
 |--------------------------------------------------|
 |--------------------------------------------------|
 |--------------------------------------------------|
 |------4--7--7/-----4--7--7/-----4--7--7/----------|
 |---6------------6------------6------------6--7----|
 |--------------------------------------------------|
 |--------------------------------------------------|
 |---5--x--5--5--x--8--8--8--x--5--5--5--x--5--5----|
 |---5--x--5--5--x--5--5--5--x--5--5--5--x--5--5----|
 |---5--x--5--5--x--5--5--5--x--5--5--5--x--5--5----|
 |---5--x--5--5--x--5--5--5--x--5--5--5--x--5--5----|
 |--------------------------------------------------|
 |--------------------------------------------------|
 |--------------------------------------------------|
 |--------------------------------------------------|
 |------4--7--7/-----4--7--7/-----4--7--7/----------|
 |---6------------6------------6-----------6--7-----|
 |--------------------------------------------------|
 |--------------------------------------------------|
 |--------------------------------------------------|
 |---------5-----5-----------5-----5----------------|
 |------5-----5-----5-----5-----5-----7--4----------|
 |---7-----------------7----------------------------|
 |--------------------------------------------------|
 |--------------------------------------------------|
 |--------------------------------------------------|
 |--------------------------------------------------|
 |------4--7--7/-----4--7--7/-----4--7--7/----------|
 |---6------------6------------6------------6--7----|
 |--------------------------------------------------|
 |--------------------------------------------------|
 |------------------5--------5-----5--4-------------|
 |---------5-----5-----5--------5--------5----------|
 |------5-----5-----------5-------------------------|
 |---7----------------------------------------------|
 |--------------------------------------------------|
 |--------------------------------------------------|
 |------4--7--10--8--6------8--7--------------------|
 |---5------------------10--------10--9--9----------|
 |--------------------------------------------------|
 |--------------------------------------------------|
 |--------------------------------------------------|
 |--------------------------------------------------|

here is the song with the chords:
[Am]Que mis ojos se despierten
con la luz de tu mira[E7/B]da, yo
A dios le pi[Am]do
Que mi madre no se [Am/D]muera y
Que mi padre me [E7]recuerde
A dios le pi[Am]do
[Am]Que te quedes a mi [Dm]lado y
Que mas nunca te [E7]me vayas mi vida
A dios le pi[Am]do
Que mi alma no des[Dm]canse
Cuando de amarte[E7] se trate mi cielo
A dios le pi[Am]do
Por los dias que me quedan
Y las noches que aun no ll[E7/B]egan, yo
A dios le pi[Am]do
Por los [Am/D]hijos de mis hijos
Y los hijos de[E7] tus hijos
A dios le pi[Am]do
Que mi pueblo no de[Dm]rrame tanta sangre
Y [E7]se levante mi gente
A dios le pi[Am]do
Que mi alma no des[Dm]canse
Cuando de amarte[E7] se trate mi cielo
A dios le pi[Am]do
[Am]Un segundo mas de [E/G#]vida para darte[G]
Y mi corazon en[D/F#]tero entregarte
[Am]Un segundo mas de [E/G#]vida para darte[G]
Y a tu lado para [D/F#]siempre yo quedarme[Fmaj7]
Un segundo mas de vi[E]da, yo
A dios le pi[C]do
Que si me muero sea de amor[G/B]
Y si me enamoro sea de voz
[Am]Y que de tu voz sea este corazon[G]
Todos los dias
A dios le pi[C]do
Que si me muero sea de amor[G]
Y si me enam[E/G#]oro sea de voz[Am]
Y que de tu v[D/F#]oz sea este corazon[G]
Todos los d[E/G#]ias
A dios le pi[Am]do[E]
A dios le pi[Am]do
[E] [Am]  
 
 |---0---------------|---5--------------|
 |---0---------------|---5--------------|
 |---1---------------|---5--------------|
 |---2---------------|---7--------------|
 |---2---------------|---7--------------|
 |---0---------------|---5--------------|


Important: The song above is NOT stored on the Chordie server. The original song is hosted at www.guitaretab.com. Chordie works as a search engine and provides on-the-fly formatting. Chordie does not index songs against artists'/composers' will. To remove this song please click here.

Text color:
Chord color:
Chord grids: 
Font size:    
Page size: 

Am Am/D C D/F# Dm E E/G# E7 E7/B Fmaj7 G G/B
Rate #2 of 14 versions

Login - add to songbook

SHARE PAGE  




You need to log in to post comments