Guitar Tabs, Chords and Lyrics
Major upgrade!! After one year development the new version of Chordie is now online! Please give feedback.


La camisa negra  Juanes

standart tuning (e, B, G, D, A, E)
This part is the rhythm guitar
[F#m]  
 
 E||---------------|-----------------------|
 B||----2----2-----|------2--------2-------|
 G||----2----2-----|------2--------2-------|
 D||----4----4-----|------4--------4-------|
 A||---------------|------------4----------|
 E||---2-----------|--2--------------------|

[F#m]  
 
 E||---------------|-----------------------|
 B||----2----2-----|------2--------2-------|
 G||----2----2-----|------2--------2-------|
 D||----4----4-----|------4--------4-------|
 A||---------------|------------4----------|
 E||---2-----------|--2--------------------|

[C#7]  
 
 E||--------------------|
 B||----2--2-----2----2-|
 G||----4--4-----4----4-|
 D||----3--3-----3----3-|
 A||--4--------4----4---|
 E||--------------------|

[F#m]  
 
 E||---------------|-----------------------|
 B||----2----2-----|------2--------2-------|
 G||----2----2-----|------2--------2-------|
 D||----4----4-----|------4--------4-------|
 A||---------------|------------4----------|
 E||---2-----------|--2--------------------|

[Bm] [F#m]  
 
 E||-------------------|---------------|------------------------|
 B||----3--3-----2---2-|----2----2-----|------2--------2--------|
 G||----4--4-----4---4-|----2----2-----|------2--------2--------|
 D||----4--4-----3---3-|----4----4-----|------4--------4--------|
 A||--2--------4-------|---------------|------------4-----------|
 E||-------------------|---2-----------|--2---------------------|

First you have a litle intro but i still have to figure that out, any way this part
at 15 seconds (rhythm guitar on the background)
 
 e|----------------------------------------------------------------|
 B|----------------------------------------------------------------|
 G|---2-2-2---2-6-6p2--2-6-6p2--2----4-4-4---4-7-7p4--4-7-7p4-4----|
 D|-4-------4---------4---------4?4s6------6---------6--------6----|
 A|----------------------------------------------------------------|
 E|----------------------------------------------------------------|

|< this part 4 times >|
 
 e|------------------------------------||
 B|------------------------------------||
 G|---2-2-2---2-6-6p2--2-6-6p2--2------||
 D|-4-------4---------4---------4?4s6--||
 A|------------------------------------||
 E|------------------------------------||

Then the chorus ( I think its the best part of the song) you play it 3 times after eachother
 
 E||----2------4------6-----7--------|
 B||----2------4------6-----7--------|
 G||----3------4------6-----8--------|
 D||----4------2------8 ----9--------|
 A||----4----- 2------8-----9--------|
 E||----2------4------6-----7--------|

I hope you people like the tab, its my first so enjoy!! ;-)
by: daniel de booij

Important: The song above is NOT stored on the Chordie server. The original song is hosted at www.guitaretab.com. Chordie works as a search engine and provides on-the-fly formatting. Chordie does not index songs against artists'/composers' will. To remove this song please click here.

Text color:
Chord color:
Chord grids: 
Font size:    
Page size: 

Bm C#7 F#m
Rate #3 of 10 versions

Login - add to songbook

SHARE PAGE  




You need to log in to post comments