Guitar Tabs, Chords and Lyrics
Major upgrade!! After one year development the new version of Chordie is now online! Please give feedback.


Hallowed Ground  Jude Cole

"Hallowed Ground" by Jude Cole
Written by Jude Cole and George Green
From the album "A View From 3rd Street"
Reprise Records, 1990
GREAT SONG MAN!!!!!
INTRO/VERSE:
 
 e--3--|--|---1----|--|---3---|--3----5--7--|--1---|----
 B--3--|--|---1----|--|---3---|--3----3--3--|--1---|----
 G--0--|--|---0----|--|---0---|--0----0--0--|--0---|----
 D--0--|--|---0----|--|---0---|--0----0--0--|--0---|----
 A-----|--|--------|--|-------|-------------|------|----
 E-----|--|--------|--|-------|-------------|------|---- 

Through the shadows, dark as shame
I can still hear your voice falling down with the rain
Washing memories from the trees
[C] [Cadd4]  
 
 -0----|---0-------
 -1----|---1-------
 -0----|---0-------
 -2----|---3-------
 -3----|---3-------
 ------|----------- 

'Til this road's covered over and lost in the leaves
Careless children, fresh as sin
I was your trouble when you were my friend
Sweet as rain on hallowed ground
One endless summer that ended somehow
 
 -1---|---3----
 -1---|---1----
 -0---|---0----
 -0---|---0----
 -----|--------
 -----|-------- 

Hoo hoo-oo, hoo
CHORUS:
Heal the [G]old wounds, lay me d[Em]own
Take me h[F]ome to hallowed gr[D]ound
On the w[G]ater, on the w[Em]ind
Where the dr[F]eam is born ag[D]ain
[F]Who[C]a, carry me h[G]ome
Walked the long road 'til I found
Each step took me further from where I was bound
Bruised and broken in my soul
Longing for something that we used to know
Hoo hoo-oo, hoo
REPEAT CHORUS
And we were ch[Em]asing the grey wind and w[C]asting our days in the s[G]un
But st[Em]and and deliver, and p[C]eace like a river will r[D]un [Dsus4]
Walked the long road 'til I found
Each step took me further from where I was bound
Hoo, hoo-oo, hoo
REPEAT CHORUS TWICE
FADE ON G
CHORUS/BRIDGE CHORDS
[G] [Em] [F] [D] [Dsus] [C]  
 
 --3----0---1---2---3---0---
 --3----0---1---3---3---1---
 --0----0---2---2---2---0---
 --0----2---3---0---0---2---
 --2----2---3-----------3---
 --3----0--(1)--------------


Important: The song above is NOT stored on the Chordie server. The original song is hosted at www.guitaretab.com. Chordie works as a search engine and provides on-the-fly formatting. Chordie does not index songs against artists'/composers' will. To remove this song please click here.

Text color:
Chord color:
Chord grids: 
Font size:    
Page size: 

C Cadd4 D Dsus Dsus4 Em F G
Rate #1 of 4 versions

Login - add to songbook

SHARE PAGE  




You need to log in to post comments