Guitar Tabs, Chords and Lyrics
Server problems seems to be fixed. Chordie has been experiencing problems with songs disappearing. These issues now seems to be fixed, but still verifying the fix. If you find anything strange, please email admin@chordie.com.


Tummenevan taivaan alla  Juha Tapio

 
 -------------------------------------------------------------------------

TUMMENEVAN TAIVAAN ALLA ? Juha Tapio
 
 -------------------------------------------------------------------------

Tabbed by: Kengus
Standard tuning
INTRO
[Dsus2] [D] [G6] [Gmaj7] [Dsus2] [D] [Bm]  
 
 e|----0-----0-2-----0-----0-2-----3-2-------0-----0-2-----0-----0-2-0----|
 B|--------3-------------3-------3-----3---------3-------------3-------3--|
 G|--2---2---------0---0-------0-----------2---2---------4---4------------|
 D|0-------------------------------------0--------------------------------|
 A|----------------------------------------------------2------------------|
 E|--------------3--------------------------------------------------------|

VERSES
[Dsus2] [D] [G6] [Gmaj7] [Dsus2] [D] [Bm]  
 
 e|----0-----0-2------0-----0-2-----3-2--------0-----0-2------0-----0-2---|
 B|--------3--------------3-------3-----3----------3--------------3-------|
 G|--2---2----------0---0-------0------------2---2----------4---4---------|
 D|0---------------------------------------0------------------------------|
 A|-------------------------------------------------------2---------------|
 E|---------------3-------------------------------------------------------|

[Dsus2] [D] [G6] [Gmaj7] [Asus2] [Asus4] [Asus2] [A]  
 
 e|-----0-----0-2------0-----0-2-----3-2----------------------------------|
 B|---------3--------------3-------3-----3------0-----0-3-----0-----0-2---|
 G|---2---2----------0---0-------0------------------2-------------2-------|
 D|-0-----------------------------------------2---2---------2---2---------|
 A|-----------------------------------------0-------------0---------------|
 E|----------------3------------------------------------------------------|

INTRO
[Dsus2] [D] [G6] [Gmaj7] [Dsus2] [D] [Bm]  
VERSE1
[Dsus2] Minne sun [D]täytyy noin [G6]juosta[Gmaj7]? [Dsus2] Pakkoko o[D]n kiiruht[Bm]aa?
[Dsus2] Itsekö ohj[D]aat vai mu[G6]utko [Gmaj7]päivies su[Asus2]untaa[Asus4] [Asus2] [A]
VERSE2
[Dsus2] Haittaako jo[D]s joku pe[G6]ttyy[Gmaj7], jos [Dsus2]mittojaan [D]täyttää et [Bm]voi?
[Dsus2] Kuuntele[D] se, mikä [G6]sisimpäs [Gmaj7]tunnossa so[Asus2]i[Asus4] [Asus2] [A]
CHORUS (strumming)
Tämän [Bm]tummenevan taivaan [F#m]alla, [G]kanssasi hetken jos [D]saan
Surun [Bm]unohtaa vain sure[F#m]malla, kahdes[G]taan
Yksi[Bm]näiset kun toisensa [F#m]kohtaa, [G]sylissä pakenee [D]muu
Sua [Bm]vasten mun mieleni r[F#m]askas huojen[G]tuu
VERSE3
[Dsus2] Aavistaa [D]voin salai[G6]suuden[Gmaj7], se [Dsus2]meissä ly[D]ö kipin[Bm]ää
Meissä[Dsus2] kuuluva[D]n ikui[G6]suude[Gmaj7]n kirkkaana nä[Asus2]än[Asus4] [Asus2] [A]
www.ultimate-guitar.com
CHORUS (strumming)
Tämän [Bm]tummenevan taivaan [F#m]alla, [G]kanssasi hetken jos [D]saan
Surun [Bm]unohtaa vain sure[F#m]malla, kahdes[G]taan
Yksi[Bm]näiset kun toisensa [F#m]kohtaa, [G]sylissä pakenee [D]muu
Sua [Bm]vasten mun mieleni r[F#m]askas huojen[G]tuu
INTERLUDE/OUTRO
[Bm] [F#m] [G] [D] [Bm] [F#m] [G]  
 
 e|-----------------------------------------------------------------------|
 B|-----------------------------------------------------------------------|
 G|-----------------------------------------------------------------------|
 D|-----------------------------------------------------------------------|
 A|-0---0-2----0---0-2----0-2-----------0---0-2----0---0-2-------2--------|
 E|---2-----2----2-----2------2--2-3-2----2-----2----2-----2-0-2----------|

La la [Bm]laa laa laa, la la [F#m]laa laa laa, la la [G]laa laa laa
Laa-a-[D]aa
La la [Bm]laa laa laa, la la [F#m]laa laa laa
Laa la [G]laa.[D]
=========================================================================

Important: The song above is NOT stored on the Chordie server. The original song is hosted at www.guitaretab.com. Chordie works as a search engine and provides on-the-fly formatting. Chordie does not index songs against artists'/composers' will. To remove this song please click here.

Text color:
Chord color:
Chord grids: 
Font size:    
Page size: 

A Asus2 Asus4 Bm D Dsus2 F#m G G6 Gmaj7
Rate #1 of 3 versions

Login - add to songbook

SHARE PAGE  



You need to log in to post comments