Guitar Tabs, Chords and Lyrics
Major upgrade!! After one year development the new version of Chordie is now online! Please give feedback.


Ugly   Juliana Hatfield

 
 -----------------------------------------------------------------------

 


 | Ugly - Juliana Hatfield |


 | from Hey Babe - 1992 Mammoth Records |


 | |


 | Guitar TAB V. 1.1 by |


 | Carsten Pedersen - email: carstenp@inet.uni-c.dk |


 

 
 -----------------------------------------------------------------------

 


 


 [1]  

 
 e|--------|----------|--------|--------|-2--0-|-2--0-|-0-|-0-|
 B|--------|----------|--------|--------|-0--0-|-0--0-|-0-|-0-|
 G|----1---|-h2--2----|----2---|----2---|-1--1-|-1--1-|-4-|-4-|
 D|--2---2-|---2----2-|--2---2-|--0---0-|-2--2-|-2--2-|-5-|-5-| X 2
 A|--------|----------|--------|--------|-2--2-|-2--2-|-5-|---|
 E|-0-0-0--|-0--0--0--|-2-2-2--|-2-2-2--|-0--0-|-0--0-|-0-|-5-|

 


 


 [17]  

 
 e|-0------------|-0-----------|-0-----------|-0----|-0-|-0-|-0-|
 B|-0------------|-0-----------|-0-----------|-0----|-0-|-0-|-0-|
 G|-1------------|-2-----------|-2-----------|-9----|-9-|-9-|-9-|
 D|-2------------|-2-----------|-2-----------|-9----|-9-|-9-|-9-|
 A|-2------------|-2-----------|-------------|-7----|-7-|-7-|-7-|
 E|-0------------|-0-----------|-2-----------|-0----|-0-|-0-|-0-|

 


 I don't look at faces I look at my feet


 


 [24]  

 
 e|-0------------|-0-----------|-0-----------|-0----|-0-|-0-|-0-|
 B|-0------------|-0-----------|-0-----------|-0----|-0-|-0-|-0-|
 G|-1------------|-2-----------|-2-----------|-7----|-7-|-5-|-8-|
 D|-2------------|-2-----------|-2-----------|-7----|-7-|-5-|-9-|
 A|-2------------|-2-----------|-------------|-5----|-5-|-3-|-9-|
 E|-0------------|-0-----------|-2-----------|------|---|---|-7-|

 


 I'm all alone when I walk down the street


 


 [31]  

 
 e|-0------------|-0--------------|-0--------|-0----|-0-|-0-|-0-|
 B|-0------------|-0--------------|-0--------|-0----|-0-|-0-|-0-|
 G|-1------------|-2--------------|-2--------|-9----|-9-|-9-|-7-|
 D|-2------------|-2--------------|-2--------|-9----|-9-|-9-|-7-|
 A|-2------------|-2--------------|----------|------|---|---|---|
 E|-0------------|-0--------------|-2--------|-9----|-9-|-9-|-7-|

 


 I'm in the kitchen cause I can't take the heat


 


 38


 

 
 e|-0------------|-0--------------|-0--------|-0----|-0-|-0-|--------|
 B|-0------------|-0--------------|-0--------|-0----|-0-|-0-|--------|
 G|-1------------|-2--------------|-2--------|-7----|-7-|-8-|--------|
 D|-2------------|-2--------------|-2--------|-7----|-7-|-9-|--------|
 A|-2------------|-2--------------|----------|-5----|-5-|-9-|--------|
 E|-0------------|-0--------------|-2--------|------|---|-7-|--------|

 


 I wanna leave but I stay in my seat cause I'm


 


 [45]  

 
 e|-0-----|-0----|-0--------|-0-|-0-|--0-|-0-|-0----|
 B|-0-----|-0----|-0--------|-0-|-0-|--0-|-0-|-0----|
 G|-8-----|-8----|-8--------|-8-|-6-|--9-|-8-|-8----|
 D|-6-----|-6----|-6--------|-6-|-4-|--7-|-6-|-6----|
 A|-7-----|-7----|-7--------|---|---|----|-7-|-7----|
 E|-0-----|-0----|-0--------|-7-|-5-|--8-|-0-|-0----|

 


 Ugly with a capital U__________ and I


 


 [53]  

 
 e|-0----------|-0-------|-0------------|-0----|-0-|--0-|--0-|--0-|
 B|-0----------|-0-------|-0------------|-0----|-0-|--0-|--0-|--0-|
 G|-8----------|-8-------|-8------------|-8----|-6-|--9-|--9-|--9-|
 D|-6----------|-6-------|-6------------|-6----|-4-|--7-|--7-|--7-|
 A|-7----------|-7-------|-7------------|------|---|----|----|----|
 E|-0----------|-0-------|-0------------|-7----|-5-|--8-|--7-|--7-|

 


 don't need a mirror to see that it's true______________________


 


 [61]  

 
 e|--------|---------|--------|--------|-2--0-|-2--0-|-0-|-0-|
 B|--------|---------|--------|--------|-0--0-|-0--0-|-0-|-0-|
 G|----1---|-h2--2---|----2---|----2---|-1--1-|-1--1-|-4-|-4-|
 D|--2---2-|---2---2-|--2---2-|--0---0-|-2--2-|-2--2-|-5-|-5-|
 A|--------|---------|--------|--------|-2--2-|-2--2-|-5-|---|
 E|-0-0-0--|-0--0-0--|-2-2-2--|-2-2-2--|-0--0-|-0--0-|-0-|-5-|

 


 


 [69]  

 
 e|--------|---------0-|--------|-------0-|-2-0-|-0-|-0-|-0-|
 B|--------|---------0-|--------|-------0-|-0-0-|-0-|-0-|-0-|
 G|--1-1---|-h2----2---|----2---|-----2-1-|-1-1-|-2-|-3-|-4-|
 D|--2-2-2-|---2-2-----|--2---2-|--0-0----|-2-2-|-0-|-0-|-5-|
 A|--------|-----------|--------|---------|-2-2-|-3-|-4-|---|
 E|-0-0-0--|-0--0------|-2-2----|-2-2-----|-0-0-|-0-|-0-|-5-|

 


 


 [77]  

 
 e|-0------------|-0-----------|-0-----------|-0----|-0-|-0-|-0-|
 B|-0------------|-0-----------|-0-----------|-0----|-0-|-0-|-0-|
 G|-1------------|-2-----------|-2-----------|-9----|-9-|-9-|-9-|
 D|-2------------|-2-----------|-2-----------|-9----|-9-|-9-|-9-|
 A|-2------------|-2-----------|-------------|-7----|-7-|-6-|-6-|
 E|-0------------|-0-----------|-2-----------|------|---|---|---|

 


 Ask me a question and I will mess up ooh______


 


 84


 

 
 e|-0------------|-0-----------|-0---------|-0----|-0-|-0---0-0---|-0-|
 B|-0------------|-0-----------|-0---------|-0----|-0-|-0---0-0---|-0-|
 G|-1------------|-2-----------|-2---------|-7----|-7-|-5/7\5-5/7-|-8-|
 D|-2------------|-2-----------|-2---------|-7----|-7-|-5/7\5-5/7-|-9-|
 A|-2------------|-2-----------|-----------|-5----|-5-|-3/5\3-3/5-|-9-|
 E|-0------------|-0-----------|-2---------|------|---|-----------|-7-|

 


 I'll tell a lie and I'll never fess up


 


 [91]  

 
 e|-0------------|-0-----------|-0-----------|-0^^--|----|-0---|-0---|
 B|-0------------|-0-----------|-0-----------|-0^^--|----|-0---|-0---|
 G|-1------------|-2-----------|-2-----------|-9^^--|----|-9---|-7---|
 D|-2------------|-2-----------|-2-----------|-9^^--|----|-9---|-7---|
 A|-2------------|-2-----------|-------------|------|----|-----|-----|
 E|-0------------|-0-----------|-2-----------|-9^^--|----|-9---|-7---|

 


 I'm pretty lost but I don't wanna be found no no no no no


 


 98


 

 
 e|-0------------|-0-----------|-0--------|-0----|-0-|----------|-7-----|
 B|-0------------|-0-----------|-0--------|-0----|-0-|----------|-7-----|
 G|-1------------|-2-----------|-2--------|-7----|-7-|-8--9-8-9-|-8-----|
 D|-2------------|-2-----------|-2--------|-7----|-7-|-9--7-7-7-|-7-----|
 A|-2------------|-2-----------|----------|-5----|-5-|-9--9-9-9-|-9-----|
 E|-0------------|-0-----------|-2--------|------|---|-7--7-7-7-|-7-----|

 


 My tiny screams don't make a sound no____ cause I'm


 


 105


 

 
 e|-0-----|-0----|-0--------|-0-|-0-|--0-|-0-|-0----|
 B|-0-----|-0----|-0--------|-0-|-0-|--0-|-0-|-0----|
 G|-8-----|-8----|-8--------|-8-|-6-|--9-|-8-|-8----|
 D|-6-----|-6----|-6--------|-6-|-4-|--7-|-6-|-6----|
 A|-7-----|-7----|-7--------|---|---|----|-7-|-7----|
 E|-0-----|-0----|-0--------|-7-|-5-|--8-|-0-|-0----|

 


 Ugly with a capital U__________ and I


 


 [113]  

 
 e|-0----------|-0-------|-0------------|-0----|-0-|--0-|--0-|--0-|
 B|-0----------|-0-------|-0------------|-0----|-0-|--0-|--0-|--0-|
 G|-8----------|-8-------|-8------------|-8----|-6-|--9-|--8-|--8-|
 D|-6----------|-6-------|-6------------|-6----|-4-|--7-|--6-|--6-|
 A|-7----------|-7-------|-7------------|------|---|----|--7-|--7-|
 E|-0----------|-0-------|-0------------|-7----|-5-|--8-|--0-|--0-|

 


 don't need a mirror to see that it's true____________ cause I'm


 


 [121]  

 
 e|-0-----|-0----|-0--------|-0-|-0-|--0-|-0-|-0----|
 B|-0-----|-0----|-0--------|-0-|-0-|--0-|-0-|-0----|
 G|-8-----|-8----|-8--------|-8-|-6-|--9-|-8-|-8----|
 D|-6-----|-6----|-6--------|-6-|-4-|--7-|-6-|-6----|
 A|-7-----|-7----|-7--------|---|---|----|-7-|-7----|
 E|-0-----|-0----|-0--------|-7-|-5-|--8-|-0-|-0----|

 


 Ugly with a capital U_________________ and I


 


 [129]  

 
 e|-0-------|-0-------|-0----------|-0----|-0-|--0-|--0-|--0-|-0-|
 B|-0-------|-0-------|-0----------|-0----|-0-|--0-|--0-|--0-|-0-|
 G|-8-------|-8-------|-8----------|-8----|-6-|--9-|--9-|--9-|-1-|
 D|-6-------|-6-------|-6----------|-6----|-4-|--7-|--7-|--7-|-2-|
 A|-7-------|-7-------|-7----------|------|---|----|----|----|-2-|
 E|-0-------|-0-------|-0----------|-7----|-5-|--8-|--7-|--7-|-0-|

 


 need nobody to tell me the truth________________________


 


 Legend:


 

 
 -------

 


 h hammer on


 / slide up


 \ slide down


 ^^ tremolo


 


 

 
 --------------------------------------------------------------------


Important: The song above is NOT stored on the Chordie server. The original song is hosted at www.guitaretab.com. Chordie works as a search engine and provides on-the-fly formatting. Chordie does not index songs against artists'/composers' will. To remove this song please click here.

This song is displayed as text-only. Transposing and tuning is only available for chordpro-songs.
Rate #3 of 3 versions

Jango Player

Login - add to songbook

SHARE PAGE  



You need to log in to post comments