Guitar Tabs, Chords and Lyrics
Server problems seems to be fixed. Chordie has been experiencing problems with songs disappearing. These issues now seems to be fixed, but still verifying the fix. If you find anything strange, please email admin@chordie.com.


All Around the World  Justin Bieber

Title: All Around The World Acoustic
Artist: Justin Bieber
Album: Believe Acoustic
Tabbed by @gisellachrst
NO CAPO
Gm - 355xxx
Dm - 557xxx
C - x355xxx
A# - 688xxx
C* - 81010xxx
Intro: Gm - Dm - C - C x2
Verse 1:
You're [Gm]beautiful, beaut[Dm]iful you should know it
You're[C] beautiful, beaut[C]iful you should know it
I th[Gm]ink it's time, think it'[Dm]s time that you show it
You'r[C]e beautiful, beau[C]tiful
Gm A# C*
Baby whatcha doin' where you at, where you at?
Why you ac[Gm]ting so shy?
A# C*
Holding back, holding back.
Gm A# C*
We're not the only ones doin' it like that, and like that
Gm A# C*
So DJ bring that, bring that, bring that, bring that back
(Chorus)
 
 e|--------------10-------------------5-----------------8--------8--------8--------|
 B|-----------11----11--------------6---6-------------8---8--------8--------8------|
 G|--------12----------12---------7-------7---------9-------9--------9--------9----|
 D|-----12----------------12----7-----------7----10-----------10-------10-------10-|
 A|--10-----------------------5---------------10-----------------------------------|
 E|--------------------------------------------------------------------------------|

Cuz all around the world, people want to be loved, yeah
 
 e|--------------10-------------------5-----------------8--------8--------8--------|
 B|-----------11----11--------------6---6-------------8---8--------8--------8------|
 G|--------12----------12---------7-------7---------9-------9--------9--------9----|
 D|-----12----------------12----7-----------7----10-----------10-------10-------10-|
 A|--10-----------------------5---------------10-----------------------------------|
 E|--------------------------------------------------------------------------------|

Cuz all around the world, They're no different than us
All around the [Gm]world
People[Dm] want to be[C] loved[C]
All around the [Gm]world,
They're no[Dm] different tha[C]n us.[C]
(Verse2)
You're[Gm] crazy girl, crazy g[Dm]irl you should know it
You're[C] crazy girl, crazy g[C]irl don't control it
I thin[Gm]k it's time, think it's [Dm]time that you show it
You're[C] crazy girl, [C]crazy girl
Gm A# C*
Baby whatcha doin' where you at, where you at?
Why you ac[Gm]ting so shy?
A# C*
Holding back, holding back.
Gm A# C*
We're not the only ones doin' it like that, and like that
Gm A# C*
So DJ bring that, bring that, bring that, bring that back
(Chorus)
Cuz all around the [Gm]world
People wan[Dm]t to be loved, [C]yeah[C]
Cuz all around the w[Gm]orld,
They're no [Dm]different than[C] us[C]
Yeah, cause all[Gm] around the world
People[Dm] want to be[C] loved, y[C]eah
Cause all aroun[Gm]d the world,
They're no[Dm] different tha[C]n us[C]
Cuz all around the w[Gm]orld..
Thanks :)

Important: The song above is NOT stored on the Chordie server. The original song is hosted at www.guitaretab.com. Chordie works as a search engine and provides on-the-fly formatting. Chordie does not index songs against artists'/composers' will. To remove this song please click here.

Text color:
Chord color:
Chord grids: 
Font size:    
Page size: 

C Dm Gm
Rate #1 of 11 versions

Login - add to songbook

SHARE PAGE  



You need to log in to post comments