Guitar Tabs, Chords and Lyrics
Server problems seems to be fixed. Chordie has been experiencing problems with songs disappearing. These issues now seems to be fixed, but still verifying the fix. If you find anything strange, please email admin@chordie.com.


Addicted to Drugs  Kaiser Chiefs

I grabbed GhostInADitch chords tab and completed a little bit.
 
 e -------------------------------------------------------------------|
 B -------------------------------------------------------------------|
 G -------------------------------------------------------------------|
 D -----------------------------Repeat(2x)----------------------------|
 A -------------------------------------------------------------------|
 E -6--6--6--9-6-3-2-2--0-3-0-----------------------------------------|
 e -------------------------------------------------------------------|
 B -------------------------------------------------------------------|
 G -------------------------------------------------------------------|
 D -------------------------------------------------------------------|
 A -------------------------------------------------------------------|
 E -6--6--6--9-6-3-2-2--0-2-0-1-1-1--0-2-0-1-1-1----------------------|

Now for the verse there's just a few chords:
[A]Getting married in the mo[F#m]rning, i[A]ts hardly peaches and c[F#m]ream
[A]We haven't got a [F#m]lot in common,[F] except the daily rou[A]tine
[A]Nothing on the tele[F#m]vision,[A] just the dust on the [F#m]screen
[A]So come on lets get to[F#m]gether,[F] why dont we join a [A]team?
Chorus:
[A]You might as well face it you're add[E]icted to drugs
[F#m]You might as well face it you're [D]addicted
During Chorus:
 
 e -------------------------------------------------------------------|
 B -------------------------------------------------------------------|
 G -------------------------------------------------------------------|
 D ---------------------------------------5--7--8---------------------|
 A ------------------------5-----5--7---------------------------------|
 E --0----5/7-----7---------------------------------------|


Important: The song above is NOT stored on the Chordie server. The original song is hosted at www.guitaretab.com. Chordie works as a search engine and provides on-the-fly formatting. Chordie does not index songs against artists'/composers' will. To remove this song please click here.

Text color:
Chord color:
Chord grids: 
Font size:    
Page size: 

A D E F F#m
Rate #2 of 5 versions

Login - add to songbook

SHARE PAGE  



You need to log in to post comments