Guitar Tabs, Chords and Lyrics
Server problems seems to be fixed. Chordie has been experiencing problems with songs disappearing. These issues now seems to be fixed, but still verifying the fix. If you find anything strange, please email admin@chordie.com.


Sana  Kamikazee

Song Title: Sana
Artist/Band: Kamikazee
Album/Year: Romantico (2011)
Tabbed By: Pauz Prima (primesenthyx@yahoo.com) - fb
 
 --------------------------------------------------------------------------------------------

INTRO:
Guitar 1: G-Em-C-D
 
 |------------------------------------------------------------|
 |------------------------------------------------------------|
 |------------------------------------------------------------|
 |-555-777-555-444-5-5--555-777-555-444-5-5--5555555555555555-|
 |-555-777-333-222-5-5--555-777-333-222-5-5--5555555555555555-|
 |-333-555---------3-3--333-555---------3-3--3333333333333333-|
 |-------------------------------------------------------------|
 |-------------------------------------------------------------|
 |-------------------------------------------------------------|

|-55555555555555-22222222222222-55555555555555-77777777777777-| 2x
|-55555555555555-22222222222222-33333333333333-55555555555555-|
 
 |-33333333333333-00000000000000-------------------------------|

Guitar 2: (sasabay sa unang bagsak ng G)
 
 |--------------------------------------------------------------------------|
 |--------------------------------------------------------------------------|
 |----------------------------------------12121212121212121212121212121212\-|
 |-12-12-12121212121212121212121212-12-12-xxxxxxxxxxxxxxxxxxxxxxxxxxxxxxxx--|
 |-10-10-10101010101010101010101010-10-10-10101010101010101010101010101010\-|
 |--------------------------------------------------------------------------|
 |-------------------------------------------------------------------------------------------|
 |-------------------------------------------------------------------------------------------|
 |-7777777777777777-14141414-1111111111111-12121212121212121212-141414141414-111111111111111-|
 |-xxxxxxxxxxxxxxxx-xxxxxxxx-xxxxxxxxxxxxx-xxxxxxxxxxxxxxxxxxxx-xxxxxxxxxxxx-xxxxxxxxxxxxxxx-|
 |-5555555555555555-12121212-9-9-9-9-9-9-9-10101010101010101010-121212121212-9-9-9-9-9-9-9-9-|
 |-------------------------------------------------------------------------------------------|
 |----------------------------------------------------------------------------------------------|
 |----------------------------------------------------------------------------------------------|
 |-7777777777777777-14141414-1111111111111-12121212121212121212-14141414-1212-1111-9999-1111-7~-|
 |-xxxxxxxxxxxxxxxx-xxxxxxxx-xxxxxxxxxxxxx-xxxxxxxxxxxxxxxxxxxx-xxxxxxxx-xxxx-xxxx-xxxx-xxxx-x--|
 |-5555555555555555-12121212-9-9-9-9-9-9-9-10101010101010101010-12121212-1010-9-9--7777-9-9--5~-|
 |----------------------------------------------------------------------------------------------|

VERSE 1:
Guitar 1 & 2:
 
 |-----------------------------------------------------------------------------------------|
 |-----------------------------------------------------------------------------------------|
 |-----------------------------------------------------------------------------------------|
 |----5----55----5----55----2----22----2----22----5----55----5----55----7----77----7----77-|
 |-55-5-55-55-55-5-55-55-22-2-22-22-22-2-22-22-33-3-33-33-33-3-33-33-55-5-55-55-55-5-55-55-|
 |-33---33----33---33----00---00----00---00----00---00----00---00----00---00----00---00----|

** ** ** ** ** ** ** ** ** ** ** ** ** ** ** **
 
 |-------------------------------------------------------------------------------------|
 |-------------------------------------------------------------------------------------|
 |-------------------------------------------------------------------------------------|
 |----5----55----5----55----2----22----2----22----5----55----5----55----7----777799999-|
 |-55-5-55-55-55-5-55-55-22-2-22-22-22-2-22-22-33-3-33-33-33-3-33-33-55-5-55-555577777-|
 |-33---33----33---33----00---00----00---00----00---00----00---00----00---00-----------|

** ** ** ** ** ** ** ** ** ** ** ** ** **
[G]Kay raming lovesong ang [Em]naisulat
[C]Iba't-iba ang istorya, i[D]ba't-ibang pamagat.
Ngunit, i[G]bahin mo ang mga a[Em]witin na ito
Meron na [C]bang kantang naisulat [D]para [--]lang sa[(Em)]'yo?
CHORUS:
Guitar 1:
 
 |-------------------------------------------------------------|
 |-------------------------------------------------------------|
 |-------------------------------------------------------------|

|-55555555555555-22222222222222-55555555555555-77777777777777-| 2x
|-55555555555555-22222222222222-33333333333333-55555555555555-|
 
 |-33333333333333-00000000000000-------------------------------|

Guitar 2:
 
 |-------------------------------------------------------------------------------------------|
 |-------------------------------------------------------------------------------------------|
 |-7777777777777777-14141414-1111111111111-12121212121212121212-141414141414-111111111111111-|
 |-xxxxxxxxxxxxxxxx-xxxxxxxx-xxxxxxxxxxxxx-xxxxxxxxxxxxxxxxxxxx-xxxxxxxxxxxx-xxxxxxxxxxxxxxx-|
 |-5555555555555555-12121212-9-9-9-9-9-9-9-10101010101010101010-121212121212-9-9-9-9-9-9-9-9-|
 |-------------------------------------------------------------------------------------------|
 |-------------------------------------------------------------------------------------------|
 |-------------------------------------------------------------------------------------------|
 |-7777777777777777-14141414-1111111111111-12121212121212121212-14141414-1212-1111-9999-1111-|
 |-xxxxxxxxxxxxxxxx-xxxxxxxx-xxxxxxxxxxxxx-xxxxxxxxxxxxxxxxxxxx-xxxxxxxx-xxxx-xxxx-xxxx-xxxx-|
 |-5555555555555555-12121212-9-9-9-9-9-9-9-10101010101010101010-12121212-1010-9-9--7777-9-9--|
 |-------------------------------------------------------------------------------------------|

[G]Sana nga[Em]yon, ika'y na[C]kikinig, la[D]man ka ng bawat himig,
[G]Sana nga[Em]yon, ang[C]kinin ang awit ko, i[D]sang wagas na pag-ibig...
VERSE 2:
Guitar 1:
 
 |-----------------------------------------------------------------------------------------|
 |-----------------------------------------------------------------------------------------|
 |-----------------------------------------------------------------------------------------|
 |----5----55----5----55----2----22----2----22----5----55----5----55----7----77----7----77-|
 |-55-5-55-55-55-5-55-55-22-2-22-22-22-2-22-22-33-3-33-33-33-3-33-33-55-5-55-55-55-5-55-55-|
 |-33---33----33---33----00---00----00---00----00---00----00---00----00---00----00---00----|

** ** ** ** ** ** ** ** ** ** ** ** ** ** ** **
 
 |-------------------------------------------------------------------------------------|
 |-------------------------------------------------------------------------------------|
 |-------------------------------------------------------------------------------------|
 |----5----55----5----55----2----22----2----22----5----55----5----55----7----777799999-|
 |-55-5-55-55-55-5-55-55-22-2-22-22-22-2-22-22-33-3-33-33-33-3-33-33-55-5-55-555577777-|
 |-33---33----33---33----00---00----00---00----00---00----00---00----00---00-----------|

** ** ** ** ** ** ** ** ** ** ** ** ** **
Guitar 2:
 
 |-----------------------------------------------------------------------------------------|
 |-----------------------------------------------------------------------------------------|
 |-----------------------------------------------------------------------------------------|
 |----5----55----5----55----2----22----2----22----5----55----5----55----7----77----7----77-|
 |-55-5-55-55-55-5-55-55-22-2-22-22-22-2-22-22-33-3-33-33-33-3-33-33-55-5-55-55-55-5-55-55-|
 |-33---33----33---33----00---00----00---00----00---00----00---00----00---00----00---00----|

** ** ** ** ** ** ** ** ** ** ** ** ** ** ** **
 
 |---------------------------------------------------------------|
 |---------------------------------------------------------------|
 |-00-7-0-7po5-4-0-00-4-0-4/5-4\2----4---4/5-4-0----2---2h4-2po0-| (di aq mxadong cgurado d2..)
 |--------------------------------22---2---------00---0----------|
 |---------------------------------------------------------------|
 |---------------------------------------------------------------|

** * ** * ** * ** *
[G]Pinagsama-samang [Em]alaala,
[C]Nadapa tayo at nasawi, bu[D]mangon, natuto, nagwagi
Kaya, iba[G]hin mo ang mga awi[Em]tin na ito
Dahil lah[C]at ng aking naisulat a[D]y tun[--]gkol sa[(Em)]'yo...
 
 ------REPEAT CHORUS-------

INTERLUDE 1:
Guitar 1: Em-G-C
 
 |-------------------------------------------------------|
 |-------------------------------------------------------|
 |-------------------------------------------------------|
 |-222-xxxxx-5555\4-555~~---222-xxxxx-5555\4-555~~---x-x-|
 |-222-xxxxx-3333\2-555~~---222-xxxxx-3333\2-555~~---x-x-|
 |-000-xxxxx--------333~~---000-xxxxx--------333~~---x-x-|
 |------------------------------|
 |------------------------------|
 |------------------------------|
 |-222-22-555-55-555-55-55-5555-|
 |-222-22-555-55-333-33-33-3333-|
 |-000-00-333-33----------------|
 |---------------------------------------|
 |---------------------------------------|
 |---------------------------------------|
 |-555-777-555-444-5-5--5555555555555555-|
 |-555-777-333-222-5-5--5555555555555555-|
 |-333-555---------3-3--3333333333333333-|

Guitar 2:
 
 |-------------------------------------------------------|
 |-------------------------------------------------------|
 |-------------------------------------------------------|
 |-222-xxxxx-5555\4-555~~---222-xxxxx-5555\4-555~~---2-2-|
 |-222-xxxxx-3333\2-555~~---222-xxxxx-3333\2-555~~---2-2-|
 |-000-xxxxx--------333~~---000-xxxxx--------333~~---0-0-|
 |---------------------------------------------------------------------------------|
 |---------------------------------------------------------------------------------|
 |-9999-11-12-7777-11-12-5555-12-11-77777777-9999-11-12-7777-11-12-55555555555555~-|
 |-xxxx-xx-xx-xxxx-xx-xx-xxxx-xx-xx-xxxxxxxx-xxxx-xx-xx-xxxx-xx-xx-xxxxxxxxxxxxxx--|
 |-7777-9--10-5555-9--10-3333-10-9--55555555-7777-9--10-5555-9--10-33333333333333~-|
 |---------------------------------------------------------------------------------|
 |----------------------------------------------------------------------------|
 |----------------------------------------------------------------------------|
 |----------------------------------------------------------------------------|
 |-555-777-555-444-5-5-1212121212121212121212121212-+++++++++++++++++++++++++-|
 |-555-777-333-222-5-5-1010101010101010101010101010-+++++++++++++++++++++++++-|
 |-333-555---------3-3------------------------------+++++++++++++++++++++++++-|

|_______pickslide_______|
ADLIB:
Guitar 1: G-Em-C-D
 
 |---------------------------------------------------------------|
 |---------------------------------------------------------------|
 |---------------------------------------------------------------|
 |-55555555555555-22222222222222-55555555555555-777777777777-7-7-|
 |-55555555555555-22222222222222-33333333333333-555555555555-5-5-|
 |-33333333333333-00000000000000---------------------------------|
 |-------------------------------------------------------------|
 |-------------------------------------------------------------|
 |-------------------------------------------------------------|

|-55555555555555-22222222222222-55555555555555-77777777777777-|
|-55555555555555-22222222222222-33333333333333-55555555555555-|
 
 |-33333333333333-00000000000000-------------------------------|

Guitar 2:
 
 |------------------------------------------------------------|
 |------------------------------------------------------------|
 |-12121212-11111-99-7777-99-11111-12121212-11111-99-44444444-|
 |-xxxxxxxx-xxxxx-xx-xxxx-xx-xxxxx-xxxxxxxx-xxxxx-xx-xxxxxxxx-|
 |-10101010-9--9--77-5555-77-9--9--10101010-9--9--77-22222222-|
 |------------------------------------------------------------|
 |-----------------------------------------------------------|
 |-----------------------------------------------------------|
 |-5555-7777-9999-11111111-12121212-14141414-12121212-12-12~-|
 |-xxxx-xxxx-xxxx-xxxxxxxx-xxxxxxxx-xxxxxxxx-xxxxxxxx-xx-xx--|
 |-3333-5555-7777-9-9-9-9--10101010-12121212-10101010-10-10~-|
 |-----------------------------------------------------------|
 |------------------------------------------------------------|
 |------------------------------------------------------------|
 |-12121212-11111-99-7777-99-11111-12121212-11111-99-44444444-|
 |-xxxxxxxx-xxxxx-xx-xxxx-xx-xxxxx-xxxxxxxx-xxxxx-xx-xxxxxxxx-|
 |-10101010-9--9--77-5555-77-9--9--10101010-9--9--77-22222222-|
 |------------------------------------------------------------|
 |---------------------------------------------------------|
 |---------------------------------------------------------|
 |-5555-7777-9999-11111111-12121212-14141414-12121212-11~~-|
 |-xxxx-xxxx-xxxx-xxxxxxxx-xxxxxxxx-xxxxxxxx-xxxxxxxx------|
 |-3333-5555-7777-9-9-9-9--10101010-12121212-10101010-9~~~-|
 |---------------------------------------------------------|

CHORUS:
Guitar 1: (palm-muted)
 
 |--------------------------------------------|
 |--------------------------------------------|
 |--------------------------------------------|

|-555555555555555555555555555555555555555555-| 2x
|-555555555555555555555555555555555555555555-|
|-333333333333333333333333333333333333333333-|
******************************************
[G]Sana nga[Em]yon, ika'y na[C]kikinig, la[D]man ka ng bawat himig,
G Em C D (break)
Sana ngayon, angkinin ang awit ko, isang wagas na pag-ibig...
INTERLUDE 2:
Guitar 1:
 
 |-------------------------------------------------------------|
 |-------------------------------------------------------------|
 |-------------------------------------------------------------|

|-55555555555555-22222222222222-55555555555555-77777777777777-|
|-55555555555555-22222222222222-33333333333333-55555555555555-|
 
 |-33333333333333-00000000000000-------------------------------|

Guitar 2:
 
 |--------------------------------------------------------------------------|
 |--------------------------------------------------------------------------|

|-1212121212121212121212121212-99999999999999-55555555555555-7777777777777-|
|-xxxxxxxxxxxxxxxxxxxxxxxxxxxx-xxxxxxxxxxxxxx-xxxxxxxxxxxxxx-xxxxxxxxxxxxx-|
|-1010101010101010101010101010-77777777777777-33333333333333-5555555555555-|
 
 |--------------------------------------------------------------------------|
 |----------------------------|
 |------14------14------14----|
 |-(12)-----12------12----12~-|
 |----------------------------| 2x (tpos magpi-pickslide ung guitar 1)
 |----------------------------|
 |----------------------------|

CHORUS: (last part)
Guitar 1 & 2 :
 
 |-------------------------------------------------------------|
 |-------------------------------------------------------------|
 |-------------------------------------------------------------|

|-55555555555555-22222222222222-55555555555555-77777777777777-|
|-55555555555555-22222222222222-33333333333333-55555555555555-|
 
 |-33333333333333-00000000000000-------------------------------|

[G]Sana nga[Em]yon, ang[C]kinin ang awit ko, i[D]sang wagas na pag-ibig...
OUTRO:
Guitar 1:
 
 |----------------------------------------------------------------|
 |----------------------------------------------------------------|
 |----------------------------------------------------------------|
 |-555-777-555-444-5-5--555-777-555-444-5-5--555555555-xxxxx-5\~~-|
 |-555-777-333-222-5-5--555-777-333-222-5-5--555555555-xxxxx-5\~~-|
 |-333-555---------3-3--333-555---------3-3--333333333-xxxxx-3\~~-|

Guitar 2:
 
 |------------------------------------------------------------------------|
 |------------------------------------------------------------------------|
 |-------------------------------------------1212121212121212-------12\~~-|
 |-555-777-555-444-5-5--555-777-555-444-5-5--xxxxxxxxxxxxxxxx-xxxxx-xx----|
 |-555-777-333-222-5-5--555-777-333-222-5-5--1010101010101010-xxxxx-10\~~-|
 |-333-555---------3-3--333-555---------3-3-------------------xxxxx-------|

x - dead note
+ - pick slide
* - palm-mute
~ - let ring
/ - slide up
\ - slide down
h - hammer on
po - pulloff
 
 ----------------------------------------------------------------------------------------------

> SenthyX Zone
> SenthyX Band

Important: The song above is NOT stored on the Chordie server. The original song is hosted at www.guitaretab.com. Chordie works as a search engine and provides on-the-fly formatting. Chordie does not index songs against artists'/composers' will. To remove this song please click here.

Text color:
Chord color:
Chord grids: 
Font size:    
Page size: 

C D Em G
Rate #1 of 2 versions

Jango Player

Login - add to songbook

SHARE PAGE  



You need to log in to post comments