Guitar Tabs, Chords and Lyrics
Server problems seems to be fixed. Chordie has been experiencing problems with songs disappearing. These issues now seems to be fixed, but still verifying the fix. If you find anything strange, please email admin@chordie.com.


Directorâ??s Cut   Kamikazee

 
 e|---------5-4---------5-4---------|
 B|-0-5-4-0-----0-5-4-0-----0-5-4-0-|
 G|---------------------------------|
 D|---------------------------------| x2
 A|---------------------------------|
 E|---------------------------------|

 


 ============================================================================


 Rhythm: [distortion]


 

 
 |---------------------------------|
 |---------------------------------|
 |-----9---8-6-4-22222222-44444444-|
 |-2-2-9---8-6-4-22222222-44444444-| x4
 |-2-2-7---6-4-2-00000000-22222222-|
 |-0-0-----------------------------|

 


 


 Lead: [distortion]


 

 
 |---------------------------------|
 |---------------------------------|
 |-----9---8-6-4--2--2--2-4--444---|
 |-2-2-9---8-6-4-------------------| x2
 |-2-2-7---6-4-2-0-00-00-2-22------|
 |-0-0-----------------------------|
 |-----------------4-4h5p4-4-4h5p4-|
 |----------------5-5-----5-5-----5|
 |-----13--11-9-8------------------|
 |-2-2-----------------------------|
 |-2-2-11--9--7-6------------------|
 |-0-0-----------------------------|
 |----------------7-5-0-5-4-0-4-2----------------|
 |--------------------------------0-7-5-0-4-5-4-0|
 |-----13--11-9-8--------------------------------|
 |-2-2-------------------------------------------|
 |-2-2-11--9--7-6--------------------------------|
 |-0-0-------------------------------------------|

 


 


 guitars pauses,drum rolls


 ============================================================================


 


 *** [ Verse ] ***


 


 Rhythm: [clean]


 

 
 |-----------------------------------------------------|
 |-----------------------------------------------------|
 |--9-9-9-9-9-9-9-9-9--6-6--4-4--2-2-2-2-2--4-4-4-4-4--|
 |--9-9-9-9-9-9-9-9-9--6-6--4-4--2-2-2-2-2--4-4-4-4-4--| x2
 |--7-7-7-7-7-7-7-7-7--4-4--2-2--0-0-0-0-0--2-2-2-2-2--|
 |-----------------------------------------------------|

 


 


 "pagmulat ng mata agad kong naalala..."


 


 Lead: [clean]


 

 
 |---------5-4---------5-4-7-5-4-5---------5-4-----------|
 |-0-5-4-0-----0-5-4-0-------------0-5-4-0-----0-5-5-4-4-|
 |-------------------------------------------------------|
 |-------------------------------------------------------|
 |-------------------------------------------------------|
 |-------------------------------------------------------|
 |---------------------------------|
 |-5-4-0-2-4-2-0-0-5-4-0-2-4-2-0-0-|
 |---------------------------------|
 |---------------------------------| x2
 |---------------------------------|
 |---------------------------------|

 


 


 Both: [distortion]


 

 
 e|---------------------------------|
 B|---------------------------------|
 G|---------------------------------|
 D|--2-2-2-2-2-2-2-2-2-2-2-2-x------|
 A|--2-2-2-2-2-2-2-2-2-2-2-2-x------|
 E|--0-0-0-0-0-0-0-0-0-0-0-0-x------|

 


 ============================================================================


 


 *** [ Interlude ] ***


 


 Lead: [clean]


 

 
 e|---------5-4---------5-4---------|
 B|-0-5-4-0-----0-5-4-0-----0-5-4-0-|
 G|---------------------------------|
 D|---------------------------------| x2
 A|---------------------------------|
 E|---------------------------------|

 


 


 Rhythm: [distortion]


 

 
 |---------------------------------|
 |---------------------------------|
 |-----9---8-6-4-22222222-44444444-|
 |-2-2-9---8-6-4-22222222-44444444-| x2
 |-2-2-7---6-4-2-00000000-22222222-|
 |-0-0-----------------------------|

 


 


 Lead: [distortion]


 

 
 |---------------------------------|
 |---------------------------------|
 |-----9---8-6-4--2--2--2-4--444---|
 |-2-2-9---8-6-4-------------------|
 |-2-2-7---6-4-2-0-00-00-2-22------|
 |-0-0-----------------------------|
 |----------------7-5-0-5-4-0-4-2----------------|
 |--------------------------------0-7-5-0-4-5-4-0|
 |-----13--11-9-8--------------------------------|
 |-2-2-------------------------------------------|
 |-2-2-11--9--7-6--------------------------------|
 |-0-0-------------------------------------------|

 


 


 ============================================================================


 repeat the verse part just be tricky


 ============================================================================


 


 *** [ Refrain ] ***


 


 Rhythm: [distortion]


 

 
 |---------------------------------------------|
 |---------------------------------------------|
 |-66666666----------------66666666------------|
 |-66666666-77-777-777-777-66666666-7--7--7--7-|
 |-44444444-77-777-777-777-44444444-7--7--7--7-|
 |----------55-555-555-555----------5--5--5--5-|

 


 


 Lead: [distortion]


 

 
 |---------------------------------------------|
 |---------------------------------------------|
 |-66666666----------------6666-8-9------------|
 |-66666666-77-777-777-777-6666-----7--7--7--7-|
 |-44444444-77-777-777-777-4444-6-7-7--7--7--7-|
 |----------55-555-555-555----------5--5--5--5-|

 


 


 => next part: "lumingon sandali lang..."


 Rhythm: [distortion]


 

 
 |---------------------------------------------|
 |---------------------------------------------|
 |-66666666----------------66666666-4----------|
 |-66666666-77-777-777-777-66666666-4----------|
 |-44444444-77-777-777-777-44444444-2----------|
 |----------55-555-555-555---------------------|

 


 


 Lead: [distortion]


 

 
 |---------------------------------|
 |-0-5-4-0-5-4-0-5-4-0-5-4-0-5-4-0-|
 |---------------------------------|
 |---------------------------------|
 |---------------------------------|
 |---------------------------------|
 |---------------------------------|
 |-0-7-5-0-7-5-0-7-5-0-7-5-0-7-5-0-|
 |---------------------------------|
 |---------------------------------|
 |---------------------------------|
 |---------------------------------|
 |-----------------------------------|
 |-0-5-4-0-5-4-0-5-4-0-5-4-0-5-4-0---|
 |---------------------------------4-|
 |---------------------------------4-|
 |---------------------------------2-|
 |-----------------------------------|

 


 


 ============================================================================


 


 *** [ Cborus ] ***


 


 Rhythm: [distortion]


 just play and scratch it


 

 
 |---------------------------------|
 |---------------------------------|
 |-9-------6---4-------------------|
 |-9---7---6---4-------------------| x2
 |-7---7---4---2-------------------|
 |-----5---------------------------|

 


 


 Lead: [distortion]


 

 
 |---------------------------------|
 |---------------------------------|
 |-9-------6---4---9---------------|
 |-9---7---6---4-------------------|
 |-7---7---4---2---7---------------|
 |-----5---------------------------|

 


 note: the last chord was played continously through the line and the rhythm ends with


 chord:


 

 
 |--------------------------------|
 |--------------------------------|
 |-2------------------------------|
 |-2------------------------------|
 |-0------------------------------|
 |--------------------------------|

 


 


 ============================================================================


 *** [ Bridge ] ***


 


 Lead: [clean]


 

 
 |----------------------------------------------------|
 |----------------------------------------------------|
 |----9-8---9-8---9-8---9-8---9-8---9-8---9-8---9-8---|
 |--9-----9------9-----9----9-----9------9----9-------| x2
 |--7-----7------0-----0------------------------------|
 |--------------------------9-----9------7----7-------|

 


 


 Rhythm: [clean]


 

 
 |--7---7---7---7---7---7---7---7---5---5---5---5---5---5---5---5---|
 |----5---5---5---5---5---5---5---5---5---5---5---5---5---5---5---5-|
 |------------------------------------------------------------------|
 |------------------------------------------------------------------| x2
 |------------------------------------------------------------------|
 |------------------------------------------------------------------|

 


 


 ============================================================================


 Drum Solo


 ============================================================================


 


 Lead:


 

 
 |---------------------------------|
 |---------------------------------|
 |----+7+7+7+7---------------------|
 |----+7+7+7+7---------------------|
 |----+7+7+7+7---------------------|
 |---------------------------------|


Important: The song above is NOT stored on the Chordie server. The original song is hosted at www.guitaretab.com. Chordie works as a search engine and provides on-the-fly formatting. Chordie does not index songs against artists'/composers' will. To remove this song please click here.

This song is displayed as text-only. Transposing and tuning is only available for chordpro-songs.
Rate #1 of 2 versions

Jango Player

Login - add to songbook

SHARE PAGE  




You need to log in to post comments