Guitar Tabs, Chords and Lyrics
Server problems seems to be fixed. Chordie has been experiencing problems with songs disappearing. These issues now seems to be fixed, but still verifying the fix. If you find anything strange, please email admin@chordie.com.


Als ich fortging  Karussell

Intro
 
 E----0-----1---0----0------0-----1---0----0------0----1---0---|
 B------1-----1---1----1------1-----1---1----1------1----1---1-|
 G--------2---------2----2------2---------2----2------2--------|
 D-------------------------------------------------------------|
 A--0----------------------0---------------------0-------------|
 E-------------------------------------------------------------|

You can use the Chord "Am" and for the 1 at the E site you can take your forefinger.
Vers 1
 
 Am E----0-----0--- Dm E----1-----1-- G E----3----3--- C E----0-----0---|
 B------1-----1- B------3-----2 B------3----3- B------1-----1-|
 G--------2----- G--------2---- G--------0---- G--------0-----|
 D-------------- D--0---------- D------------- D--------------|
 A--0----------- A------------- A------------- A--3-----------|
 E-------------- E------------- E--3---------- E--------------|

[Am]Als ich fortging war die [Dm]StraЯe s[G]teil, kehr w[C]ieder um!
 
 Am E----0-----0--- G E----3----3---|
 B------1-----1- B------3----3-|
 G--------2----- G--------0----|
 D-------------- D-------------|
 A--0----------- A-------------|
 E-------------- E--3----------|

Am G Special Section/Zwischenteil
Nimm an ihrem Kummer teil, mach sie heil.
Special Section/Zwischenteil
 
 E----0-----1---0-----0-----0---|
 B------1-----1---1-----1-----1-|
 G--------2---------------2-----|
 D------------------------------|
 A--0---------------0-----------|
 E------------------------------|

Vers 2
 
 Am E----0-----0--- Dm E----1-----1-- G E----3----3--- C E----0-----0---|
 B------1-----1- B------3-----2 B------3----3- B------1-----1-|
 G--------2----- G--------2---- G--------0---- G--------0-----|
 D-------------- D--0---------- D------------- D--------------|
 A--0----------- A------------- A------------- A--3-----------|
 E-------------- E------------- E--3---------- E--------------|

[Am]Als ich fortging war der [Dm]Asphalt hei[G]071;, kehr w[C]ieder um!
 
 Am E----0-----0--- G E----3----3---|
 B------1-----1- B------3----3-|
 G--------2----- G--------0----|
 D-------------- D-------------|
 A--0----------- A-------------|
 E-------------- E--3----------|

Am G Special Section/Zwischenteil
red ihr aus um jeden Preis, was sie weiЯ.
Special Section/Zwischenteil
 
 E----0-----1---0-----0-----0---|
 B------1-----1---1-----1-----1-|
 G--------2---------------2-----|
 D------------------------------|
 A--0---------------0-----------|
 E------------------------------|

Chorus
 
 F E----1-----1--- C E----0-----0--- Dm E----1-----1--- Am E----0-----0---|
 B------1-----1- B------1-----1- B------3-----3- B------1-----1-|
 G--------2----- G--------0----- G--------2----- G--------2-----|
 D--3----------- D-------------- D--0----------- D--------------|
 A-------------- A--3----------- A-------------- A--0-----------|
 E-------------- E-------------- E-------------- E--------------|

[F]Nichts ist u[C]nendlich, so [Dm]sieh das doch [Am]ein!
 
 F E----1-----1--- G E----3-----3---|
 B------1-----1- B------3-----3-|
 G--------2----- G--------0-----|
 D--3----------- D--------------|
 A-------------- A--------------|
 E-------------- E--3-----------|

F G Special Section/Zwischenteil
Ich weiЯ du willst unendlich sein, schwach und klein.
Special Section/Zwischenteil
 
 E----0-----1---0-----0-----0---|
 B------1-----1---1-----1-----1-|
 G--------2---------------2-----|
 D------------------------------|
 A--0---------------0-----------|
 E------------------------------|

Chorus
 
 F E----1-----1--- C E----0-----0--- Dm E----1-----1--- Am E----0-----0---|
 B------1-----1- B------1-----1- B------3-----3- B------1-----1-|
 G--------2----- G--------0----- G--------2----- G--------2-----|
 D--3----------- D-------------- D--0----------- D--------------|
 A-------------- A--3----------- A-------------- A--0-----------|
 E-------------- E-------------- E-------------- E--------------|

[F]Feuer brennt [C]nieder, wenns [Dm]keiner mehr [Am]nдhrt.
 
 F E----1-----1--- G E----3-----3---|
 B------1-----1- B------3-----3-|
 G--------2----- G--------0-----|
 D--3----------- D--------------|
 A-------------- A--------------|
 E-------------- E--3-----------|

F G Special Section/Zwischenteil
kenn ja selber was dir heute wiederfдhrt.
Vers 3
 
 Am E----0-----0--- Dm E----1-----1-- G E----3----3--- C E----0-----0---|
 B------1-----1- B------3-----2 B------3----3- B------1-----1-|
 G--------2----- G--------2---- G--------0---- G--------0-----|
 D-------------- D--0---------- D------------- D--------------|
 A--0----------- A------------- A------------- A--3-----------|
 E-------------- E------------- E--3---------- E--------------|

[Am]Als ich fortging warn die [Dm]Arme leer, [G]kehr wieder [C]um!
 
 Am E----0-----0--- G E----3----3---|
 B------1-----1- B------3----3-|
 G--------2----- G--------0----|
 D-------------- D-------------|
 A--0----------- A-------------|
 E-------------- E--3----------|

Am G Special Section/Zwischenteil
Machs ihr leichter einmal mehr, nicht so schwer.
Special Section/Zwischenteil
 
 E----0-----1---0-----0-----0---|
 B------1-----1---1-----1-----1-|
 G--------2---------------2-----|
 D------------------------------|
 A--0---------------0-----------|
 E------------------------------|

Vers 4
 
 Am E----0-----0--- Dm E----1-----1-- G E----3----3--- C E----0-----0---|
 B------1-----1- B------3-----2 B------3----3- B------1-----1-|
 G--------2----- G--------2---- G--------0---- G--------0-----|
 D-------------- D--0---------- D------------- D--------------|
 A--0----------- A------------- A------------- A--3-----------|
 E-------------- E------------- E--3---------- E--------------|

[Am]Als ich fortging kam ein [Dm]Wind so schwach, [G]warf mich nicht [C]um!
 
 Am E----0-----0--- G E----3----3---|
 B------1-----1- B------3----3-|
 G--------2----- G--------0----|
 D-------------- D-------------|
 A--0----------- A-------------|
 E-------------- E--3----------|

Am G Special Section/Zwischenteil
Unter ihrem Trдnendach, war ich schwach.
Special Section/Zwischenteil
 
 E----0-----1---0-----0-----0---|
 B------1-----1---1-----1-----1-|
 G--------2---------------2-----|
 D------------------------------|
 A--0---------------0-----------|
 E------------------------------|

Chorus
 
 F E----1-----1--- C E----0-----0--- Dm E----1-----1--- Am E----0-----0---|
 B------1-----1- B------1-----1- B------3-----3- B------1-----1-|
 G--------2----- G--------0----- G--------2----- G--------2-----|
 D--3----------- D-------------- D--0----------- D--------------|
 A-------------- A--3----------- A-------------- A--0-----------|
 E-------------- E-------------- E-------------- E--------------|

[F]Nichts ist u[C]nendlich, so [Dm]sieh das doch [Am]ein!
 
 F E----1-----1--- G E----3-----3---|
 B------1-----1- B------3-----3-|
 G--------2----- G--------0-----|
 D--3----------- D--------------|
 A-------------- A--------------|
 E-------------- E--3-----------|

F G Special Section/Zwischenteil
Ich weiЯ du willst unendlich sein, schwach und klein.
Special Section/Zwischenteil
 
 E----0-----1---0-----0-----0---|
 B------1-----1---1-----1-----1-|
 G--------2---------------2-----|
 D------------------------------|
 A--0---------------0-----------|
 E------------------------------|

Chorus
 
 F E----1-----1--- C E----0-----0--- Dm E----1-----1--- Am E----0-----0---|
 B------1-----1- B------1-----1- B------3-----3- B------1-----1-|
 G--------2----- G--------0----- G--------2----- G--------2-----|
 D--3----------- D-------------- D--0----------- D--------------|
 A-------------- A--3----------- A-------------- A--0-----------|
 E-------------- E-------------- E-------------- E--------------|

[F]Nichts ist von [C]dauer, wenns [Dm]keiner recht [Am]will.
 
 F E----1-----1--- G E----3-----3---|
 B------1-----1- B------3-----3-|
 G--------2----- G--------0-----|
 D--3----------- D--------------|
 A-------------- A--------------|
 E-------------- E--3-----------|

F G Special Section/Zwischenteil
Auch die Trauer wird da sein, schwach und klein.
Special Section/Zwischenteil
 
 E----0-----1---0-----0-----0---|
 B------1-----1---1-----1-----1-|
 G--------2---------------2-----|
 D------------------------------|
 A--0---------------0-----------|
 E------------------------------|

-END-

Important: The song above is NOT stored on the Chordie server. The original song is hosted at www.guitaretab.com. Chordie works as a search engine and provides on-the-fly formatting. Chordie does not index songs against artists'/composers' will. To remove this song please click here.

Text color:
Chord color:
Chord grids: 
Font size:    
Page size: 

Am C Dm F G
Rate #1 of 2 versions

Login - add to songbook

SHARE PAGE  



You need to log in to post comments