Guitar Tabs, Chords and Lyrics
Major upgrade!! After one year development the new version of Chordie is now online! Please give feedback.


Again and Again  Keane

Tabbed By Nicolás Levy Renaud (acade365@hotmail.com)
STANDARD TUNING - CAPO 5 (Scroll down for no capo version)
INTRO: G - Am - Dm - C - F x2
Riff:
[G] [Am] [Dm] [C] [F]  
 
 e|----------------------------------------0---------------------------------|
 B|------1-3--------1-3----------1-3---------3---1-------------1-3------1-3--|
 G|--0-2--------0-2----------0-2------0-2-----------2------0-2-----0-2-------| x2
 D|--------------------------------------------------------------------------|
 A|--------------------------------------------------------------------------|
 E|--------------------------------------------------------------------------|

VERSE:
[C]Was it all in real time
Or was it just in my mind
[(G)]Or w[Am]as I just a ghost passing through you?
[(G)]Clin[C]ging to the wreckage
Until I got the message
[(G)]Hang[Am]ing at the edge of the room
PRECHORUS:
Give me s[G]omething that's real
Give me [F]half of your bitterest pill
[Em]Something from under the surface
You ac[Dm]tually [F]feel
CHORUS:
We [G]say these words ag[Am]ain and a[Dm]gain
But t[C]hey still sound the [F]same
[G]It was in your [Am]eyes, in your [Dm]eyes
They w[C]ere just easy [F]lies
VERSE:
[C]The lightest words are heavy
And promises are easy
[(G)]And [Am]no one's ever happy or sad for very long
[(G)]But [C]just because I said it
It doesn't mean I meant it
[(G)]I gu[Am]ess that was the way all along
PRECHORUS:
I'm just [G]shaping the sound
I'm just [F]turning the syllables round
[Em]Dipping my toe in the water
And [Dm]watching you d[F]rown
CHORUS:
We [G]say these words ag[Am]ain and a[Dm]gain
But t[C]hey still sound the [F]same
[G]It was in my ey[Am]es, in my ey[Dm]es
They were just[C] easy l[F]ies
BRIDGE:
And it's been a [Am]long t[F]ime [C]wai[Em]ting
And it's been a [Am]lifeti[F]me in the [F]mak[Em]ing
SOLO:
[G] [-] [Am] [-] [Em] [-] [C] [-] [F]  
CHORUS:
[G]I said when you are al[Am]one and af[Dm]raid
I [C]will come to your a[F]id
[G]Was it just a d[Am]ream, just a d[Dm]ream
'cos was [C]it real to [G]me
We [G]say these words ag[Am]ain and a[Dm]gain
But t[C]hey still sound the [F]same
[G]Say these words a[Am]gain and ag[Dm]ain
And a[C]gain and a[F]gain
OUTRO: Am
 
 --------------------------------------------------------------

STANDARD TUNING - NO CAPO
INTRO: C - Dm - Gm - F/A - Bb x2
Riff:
[G] [Am] [Dm] [C] [F]  
 
 e|----------------------------------------5---------------------------------|
 B|------6-8--------6-8----------6-8---------8---6-------------6-8------6-8--|
 G|--5-7--------5-7----------5-7------5-7-----------7------5-7-----5-7-------| x2
 D|--------------------------------------------------------------------------|
 A|--------------------------------------------------------------------------|
 E|--------------------------------------------------------------------------|

VERSE:
[F]Was it all in real time
Or was it just in my mind
[(C)]Or w[Dm]as I just a ghost passing through you?
[(C)]Clin[F]ging to the wreckage
Until I got the message
[(C)]Hang[Dm]ing at the edge of the room
PRECHORUS:
Give me s[C]omething that's real
Give me [Bb]half of your bitterest pill
[Am]Something from under the surface
You ac[Gm]tually [Bb]feel
CHORUS:
We [C]say these words ag[Dm]ain and a[Gm]gain
But t[F/A]hey still sound the [Bb]same
[C]It was in your [Dm]eyes, in your [Gm]eyes
They w[F/A]ere just easy l[Bb]ies
VERSE:
[F]The lightest words are heavy
And promises are easy
[(C)]And [Dm]no one's ever happy or sad for very long
[(C)]But [F]just because I said it
It doesn't mean I meant it
[(C)]I gu[Dm]ess that was the way all along
PRECHORUS:
I'm just [C]shaping the sound
I'm just [Bb]turning the syllables round
[Am]Dipping my toe in the water
And [Gm]watching you d[Bb]rown
CHORUS:
We [C]say these words ag[Dm]ain and a[Gm]gain
But t[F/A]hey still sound the [Bb]same
[C]It was in my ey[Dm]es, in my eyes[Gm]
They were just[F/A] easy l[Bb]ies
BRIDGE:
And it's been a [Dm]long t[Bb]ime w[F]ait[Gm]ing
And it's been a [Dm]lifeti[Bb]me in the [F]mak[Gm]ing
SOLO:
[C] [-] [Dm] [-] [Gm] [-] [F/A] [-] [Bb]  
CHORUS:
[C]I said when you are al[Dm]one and af[Gm]raid
I [F/A]will come to your [Bb]aid
[C]Was it just a d[Dm]ream, just a d[Gm]ream
'cos was [F/A]it real to [Bb]me
We [C]say these words ag[Dm]ain and a[Gm]gain
But t[F/A]hey still sound the [Bb]same
[C]Say these words a[Dm]gain and ag[Gm]ain
And a[F/A]gain and a[Bb]gain
OUTRO: Dm

Important: The song above is NOT stored on the Chordie server. The original song is hosted at www.guitaretab.com. Chordie works as a search engine and provides on-the-fly formatting. Chordie does not index songs against artists'/composers' will. To remove this song please click here.

Text color:
Chord color:
Chord grids: 
Font size:    
Page size: 

Am Bb C Dm Em F G Gm
Rate #1 of 3 versions

Login - add to songbook

SHARE PAGE  




You need to log in to post comments