Guitar Tabs, Chords and Lyrics
Server problems seems to be fixed. Chordie has been experiencing problems with songs disappearing. These issues now seems to be fixed, but still verifying the fix. If you find anything strange, please email admin@chordie.com.


Max 500  kent

Tabbed by: Carl-Johan Holtback, member of The Shrimps
marabou_man14@hotmail.com
Intro:
Nedanstående slingor (gitarr och piano) spelas ensamma 2 rundor
 
 E|--------2-------|--------0-------|----------------|----------------|
 B|----2-------2---|----2-------2---|----2---3---2---|3---2-------2---|
 G|----------------|----------------|----------------|--------2-------|
 D|4---------4-4---|4-------------4-|4---------------|----------------|
 A|----------------|----------------|----------------|----------------|
 E|----------------|----------------|----------------|----------------|

[Pianoslinga som gitarrtabulatur] 
 
 E|--------0-------|----------------|--------2-----2-|4-------5-------|
 B|----------------|--------3-------|----2-------2---|----2-------2---|
 G|----2-------2---|----2-------2---|----------------|----------------|
 D|0---------------|0-------------4-|4---------------|--------------4-|
 A|----------------|----------------|----------------|----------------|
 E|----------------|----------------|----------------|----------------|
 E|--------------14|----------------|--------------14|----------------|
 B|----14------14--|------17----14--|----14------14--|------17----14--| [Gitarrslinga]
 G|----------------|----14----------|----------------|----14----------|
 D|16--------16----|16--------------|16--------16----|16--------------|
 A|----------------|----------------|----------------|----------------|
 E|----------------|----------------|----------------|----------------|

Därefter kommer övriga instrument in och spelar 2 rundor innan versen börjar
|F#m |F#m |F#m |F#m |
| | | | |
 
 E|--------2-------|--------0-------|----------------|----------------|
 B|----2-------2---|----2-------2---|----2---3---2---|3---2-------2---| [Pianoslinga som gitarrtabulatur]
 G|----------------|----------------|----------------|--------2-------|
 D|4---------4-4---|4-------------4-|4---------------|----------------|
 A|----------------|----------------|----------------|----------------|
 E|----------------|----------------|----------------|----------------|
 E|--------------14|----------------|--------------14|----------------|
 B|----14------14--|------17----14--|----14------14--|------17----14--| [Gitarrslinga]
 G|----------------|----14----------|----------------|----14----------|
 D|16--------16----|16--------------|16--------16----|16--------------|
 A|----------------|----------------|----------------|----------------|
 E|----------------|----------------|----------------|----------------|

|D |D |F#m |F#m |
| | | | |
 
 E|--------0-------|----------------|--------2-----2-|4-------5-------|
 B|----------------|--------3-------|----2-------2---|----2-------2---| [Pianoslinga som gitarrtabulatur]
 G|----2-------2---|----2-------2---|----------------|----------------|
 D|0---------------|0-------------4-|4---------------|--------------4-|
 A|----------------|----------------|----------------|----------------|
 E|----------------|----------------|----------------|----------------|
 E|--------------14|----------------|--------------14|----------------|
 B|----14------14--|------17----14--|----14------14--|------17----14--| [Gitarrslinga]
 G|----------------|----14----------|----------------|----14----------|
 D|16--------16----|16--------------|16--------16----|16--------------|
 A|----------------|----------------|----------------|----------------|
 E|----------------|----------------|----------------|----------------|

Vers:
[F#m] Månen hänger lågt över
[D] allt du tror du s[F#m]åg
[F#m] Under trasigt moln
[D] går ett Yeti-spå[F#m]r
Refr:
500 [D]mil i [F#m]snön
Ett UFO[Bm] över [E]sjön
och i en[D] blixt ser jag
[A]Keats stå bred[E/G#]vid Baudel[E]aire
[D] Som mag[F#m]i ett ljus man [Bm] drunknar [E]i
Det finns små[D] tricks som får [A]folk
att [G#]ge dig [G]mer än du är
värd...
Mellanspel
|F#m |F#m |F#m |F#m |
| | | | |
 
 E|--------2-------|--------0-------|----------------|----------------|
 B|----2-------2---|----2-------2---|----2---3---2---|3---2-------2---| [Pianoslinga som gitarrtabulatur]
 G|----------------|----------------|----------------|--------2-------|
 D|4---------4-4---|4-------------4-|4---------------|----------------|
 A|----------------|----------------|----------------|----------------|
 E|----------------|----------------|----------------|----------------|
 E|--------------14|----------------|--------------14|----------------|
 B|----14------14--|------17----14--|----14------14--|------17----14--| [Gitarrslinga]
 G|----------------|----14----------|----------------|----14----------|
 D|16--------16----|16--------------|16--------16----|16--------------|
 A|----------------|----------------|----------------|----------------|
 E|----------------|----------------|----------------|----------------|

|D |D |F#m |F#m |
| | | | |
 
 E|--------0-------|----------------|--------2-----2-|4-------5-------|
 B|----------------|--------3-------|----2-------2---|----2-------2---| [Pianoslinga som gitarrtabulatur]
 G|----2-------2---|----2-------2---|----------------|----------------|
 D|0---------------|0-------------4-|4---------------|--------------4-|
 A|----------------|----------------|----------------|----------------|
 E|----------------|----------------|----------------|----------------|
 E|--------------14|----------------|--------------14|----------------|
 B|----14------14--|------17----14--|----14------14--|------17----14--| [Gitarrslinga]
 G|----------------|----14----------|----------------|----14----------|
 D|16--------16----|16--------------|16--------16----|16--------------|
 A|----------------|----------------|----------------|----------------|
 E|----------------|----------------|----------------|----------------|

Vers 2:
[F#m] Mary Shelleys dröm
[D] syr en sick-sacksöm[F#m]
över[F#m] allt som [E]vintern gömt[A] [Bm]
öve[D]r allt som [E]hjärtat glö[F#m]mt
Refr:
500 [D]mil i [F#m]snön
Ett UFO[Bm] över [E]sjön
och i en[D] blixt dansar
[A]Lady Day [E/G#]vals med As[E]taire
[D] Som mag[F#m]i ett ljus man[Bm] drunknar [E]i
Det finns små[D] trick som får [A]folk
att [G#]ge dig [G]mer än du är värd...
Stick:
|D |D |Bm |Bm |
Mer än du är värd...
|F#m|F#m|
|D |D |Bm |Bm |F#m|F#m|
[Stick-slinga] 
 
 E|----------------|----------------|----------------|----14----------|
 B|-------14-------|-------14--15---|-------15---17--|--------14--15--|
 G|------------16--|----------------|----------------|----------------| x2
 D|16--------------|---16-----------|16--------------|----------------|
 A|----------------|----------------|----------------|----------------|
 E|----------------|----------------|----------------|----------------|
 E|----------------|----------------|----------------|----------------|
 B|-------14-------|-------14--15---|14--------------|----------------|
 G|------------16--|----------------|----------------|----------------|
 D|16--------------|---16-----------|----------------|----------------|
 A|----------------|----------------|----------------|----------------|
 E|----------------|----------------|----------------|----------------|

500 [D]mil i [F#m]snön
Ett UFO[Bm] över [F#m]sjön
och med en[Bm] blick får jag [A]folk att [C#m]tro[E]
[D] på mag[F#m]i ett ljus man[Bm] drunknar [E]i
Det finns små[D] trick som får [A]folk
att [G#]ge dig [C#7]mer än du är
[D] värd...[F#m] [D] [F#m] [Bm] [A] [G#] [G] [F#m]

Important: The song above is NOT stored on the Chordie server. The original song is hosted at www.guitaretab.com. Chordie works as a search engine and provides on-the-fly formatting. Chordie does not index songs against artists'/composers' will. To remove this song please click here.

Text color:
Chord color:
Chord grids: 
Font size:    
Page size: 

A Bm C#7 C#m D E E/G# F#m G G#
Rate #1 of 3 versions

Jango Player

Login - add to songbook

SHARE PAGE  



You need to log in to post comments