Guitar Tabs, Chords and Lyrics
Login is temporarily disabled for some users. Do not panic. Will be back in an hour or two. DO NOT REREGISTER!!


Som vatten  kent

Kent - Som vatten
Text: J. Berg
Musik: J. Berg
Skiva: Kent
intro: |E |Emaj7 |A |Amaj7 |
Bas:
 
 G -----8--------8--8-8-------------6-------------6--|
 D -------9-------------9-----7--7----7---7--7--7----|
 A --7-------7-------------7-------------------------|
 E --------------------------------------------------|

R[E]egn s[Emaj7]lickar hela staden
som en f[A]uktig kall [Amaj7]tunga
allt är [B]asfalt smutsigt v[A]atten
för lyktorna att s[F#m]pegla si[G#m]g i[A] [B]
G[E]år, går [Emaj7]förbi
alla människor är bl[A]anka som [Amaj7]is
och du f[B]astnar under lj[A]usen
som ett [F#m]fotogra[G#m]fi[A]
Jag se - [F#m] er dig [G#m] [A] x3
och jag v[B]et att du är rädd
|E |Emaj7 |A |Amaj7 |
R[E]egn,[Emaj7] ger mig våta drömmar
ger mig r[A]öda [Amaj7]ögon
allt är [B]asfalt smutsigt v[A]atten
allt utom [F#m]jag[G#m] [A] [B]
G[E]å, gå för[Emaj7]bi
Jag vill stjäla dina t[A]ankar ur ditt [Amaj7]huvud
för ur dina [B]ögon kan jag stj[A]äla
allt jag vill[F#m] ha,[G#m] av d[A]ig
Jag se - [F#m] er dig [G#m] [A] x3
och jag v[B]et att du är rädd
solo: |E F# |C B | 3x
|A |A |
|B C#m|D#m E |F# |B | 2x
Jag se - [F#m] er dig [G#m] [A] x3
och jag v[B7]et att du är r[E]ädd
Emaj7 = 021100 eller x79897
Amaj7 = x02120 eller 576655
Gitarr under versen:
Regn.. fuktig
 
 e|----4-----4-----4-----4-----4----|--------16-9---11-9------------------|
 B|------4-----4-----4-----4-----4--|----9--------9------9-12-9---10-9----|
 G|-4------4-----4-----4-----4------|-9----9--------------------9------9--|
 D|---------------------------------|-------------------------------------|
 A|---------------------------------|-------------------------------------|
 E|---------------------------------|-------------------------------------|

asfalt spegla sig i
 
 e|------------------------------|----------------------------------|
 B|-9b10r9-------------10-9------|----------------------------------|
 G|----------8-------9------9----|----------------------------------|
 D|------------9-7------------7--|-----4-------6--------------------|
 A|------------------------------|---4-------6-------------------6--|
 E|------------------------------|-2-----2-4-----4-5-4-5-4-5-7------|

går, går förbi blanka
 
 e|-------4---------------------------|--------16-9---11-9------------------|
 B|----------4------------------------|----9--------9------9-12-9---10-9----|
 G|-------------4---------------------|-9----9--------------------9------9--|
 D|-----------------------------------|-------------------------------------|
 A|-7---------------------------------|-------------------------------------|
 E|-----------------------------------|-------------------------------------|

fastnar fotografi
 
 e|------------------------------|----------------------------------|
 B|-9b10r9-------------10-9------|----------------------------------|
 G|----------8-------9------9----|----------------------------------|
 D|------------9-7------------7--|-----4-------6--------------------|
 A|------------------------------|---4-------6----------------------|
 E|------------------------------|-2-----2-4-----4-5-4-5-4-5-4-5-7--|


Important: The song above is NOT stored on the Chordie server. The original song is hosted at www.guitaretab.com. Chordie works as a search engine and provides on-the-fly formatting. Chordie does not index songs against artists'/composers' will. To remove this song please click here.

Text color:
Chord color:
Chord grids: 
Font size:    
Page size: 

A Amaj7 B B7 E Emaj7 F#m G#m
Rate #1 of 4 versions

Jango Player

Login - add to songbook

SHARE PAGE  



You need to log in to post comments