Guitar Tabs, Chords and Lyrics
Server problems seems to be fixed. Chordie has been experiencing problems with songs disappearing. These issues now seems to be fixed, but still verifying the fix. If you find anything strange, please email admin@chordie.com.


Nacht  Kettcar

Nacht - Kettcar
Chords: A0=001100...Powerchods (wie A5) immer als A-Barree (z.B. H5=224422)
Capo = 1. Bund
Intro:
[E] [A]  
 
 E:-------0------|----------------|-------0-----|----------------|
 H:-----0---0----|-9-------0------|-----0---0---|-9-------0------|
 G:---9-------9--|----9------9----|---9-------9-|----9------9----|
 D:--------------|-------9------9-|-------------|-------9------9-|
 A:-7------------|----------------|-0-----------|----------------|
 E:--------------|----------------|-------------|----------------|

[B] [A]  
 
 E:--------0-----|----------------|--------0-----|---------------|
 H:------0---0---|-9-------0------|------0---0---|-9-------0-----|
 G:---9--------9-|----9------9----|---9--------9-|---9-------9---|
 D:--------------|-------9-----9--|--------------|------9------9-|
 A:--------------|----------------|-0------------|---------------|
 E:-7------------|----------------|--------------|---------------|

Verse 1: (wie Intro)
[E] Die [E]Stufen, die Haustuer, der[A] Flur,[A] mein Herz schlaegt i[B]m Dunkeln und i[B]ch
lass hinter [A]mir. Die [A]letzten paar Meter ge[E]rannt, ge[E]rannt um zu sehen, wo du [A]bist
[A]Gerannt um zu fuehlen, wie es[B] ist[B], hier bei[A] dir [A]
Bridge:
 
 ---x----
 ---x----
 Zupfmuster: -----x--
 -x------
 --------
 --------

A0 A5 H5 A5 C#5 H5
Meine Welt aufgehoben und ich
A0 A5 A0 A5
Kann die Welt in 3 Woertern erklaeren
H A5 A0
Wenn ich denn muesste
Dort hinten wird's h[A5]ell
Chorus:
A5 H5 C#5 A0
Und Schwarz wird zu Grau wird zu Rot wird zu Licht
A5 H5 C#5 A0
Und benommen, verschwommen, erkennen, was man will
Meine [A5]Welt aufge[B5]hoben
C#5 A0 A5 H5
Meine Welt in 3 Woertern erklaeren
 
 Intro (Akkorde geschlagen: E=x-7-9-9-0-0 A=x-0-7-9-0-0 H=x-9-9-11-0-0)

Verse 2: (Akkorde geschlagen)
[E] Und [E]alles, was ich brauche heu[A]t Nacht,[A] eigentlich nicht v[B]iel, [B]
Nur einen [A]Platz[A] von dem aus [E]ich deinen [E]Schlaf beobachten [A]kann
[A] Das ist eigentlich nicht [B]viel [B] [A]alles [A]
Bridge
Chorus

Important: The song above is NOT stored on the Chordie server. The original song is hosted at www.guitaretab.com. Chordie works as a search engine and provides on-the-fly formatting. Chordie does not index songs against artists'/composers' will. To remove this song please click here.

Text color:
Chord color:
Chord grids: 
Font size:    
Page size: 

A A5 B B5 E
Rate #2 of 2 versions

Jango Player

Login - add to songbook

SHARE PAGE  




You need to log in to post comments