Guitar Tabs, Chords and Lyrics
Major upgrade!! After one year development the new version of Chordie is now online! Please give feedback.


Butcher   Killing Joke

 
 ------- B U T C H E R -------

 


 


 K I L L I N G J O K E


 


 ^^^^^^^^^^^^^^^^^^^^^^^^^^^^^^^^^^^^^^^^^^^^^^^^^^^^^^^^^^


 


 [#1]  

 
 e --------4---4---4-----4-4-------|--------5---5---5--5----5--------|
 B 4-------4---4---4-----4-4-------|--------3---3---3--3----3--------|
 G 4-------4---4---4-----4-4-------|--------3---3---3--3----3--------|
 D 4-------4---4---4-----4-4-------|--------3---3---3--3----3--------|
 A 2-------2-----------------------|---------------------------------|
 E --------------------------------|---------------------------------|

 


 Watchin the de - coys of all descrip-tion - (goto #2)


 sparkle of co - lour cre -ating diver - sion "


 the liars are out they have all the a-ssets "


 mi-ning for oil they were bleeding for gold "


 fruit tas-ting bitter the lead in the air "


 bu-tcher the womb and exp - ect her to bear (goto #3)


 


 forests are fa- lling there's smoke in my throat ma-


 chine over man and the mass over mind-


 re-assu - rance from face on my screen app-


 ointment with des - tiny for those who will run


 out of the virus imm- u - nity comes !


 out of the virus imm- u - nity comes !


 


 [#2]  

 
 e --------4---4---4-----4-4-------|--------5---5---5--5----5--------|
 B 4-------4---4---4-----4-4-------|--------3---3---3--3----3--------|
 G 4-------4---4---4-----4-4-------|--------3---3---3--3----3--------|
 D 4-------4---4---4-----4-4-------|--------3---3---3--3----3--------|
 A 2-------2-----------------------|---------------------------------|
 E --------------------------------|---------------------------------|

 


 (back to #1)


 


 CHORUS BREAK


 [#3]  

 
 e ----5-------5-------5-------5---|----5-------5-------5-------5----|
 B ----8-------8-------8-------8---|----8-------8-------8-------8----|
 G ----7-------7-------7-------7---|----7-------7-------7-------7----|
 D --------------------------------|---------------------------------|
 A --------------------------------|---------------------------------|
 E --------------------------------|---------------------------------|

 


 


 [#4]  

 
 e ----8---8---8-------6-------8---|----6---8---6---6---8---6---6----|
 B ----8---8---8-------8-------8---|----8---8---8---8---8---8---8----|
 G ----8---8---8-------8-------8---|----8---8---8---8---8---8---8----|
 D --------------------------------|---------------------------------|
 A --------------------------------|---------------------------------|
 E --------------------------------|---------------------------------|

 


 


 [#5]  

 
 e 9---9---9---9---9---9---9---9---|9---9---9---9---9---9---9---9----|
 B 7---7---7---7---7---7---7---7---|7---7---7---7---7---7---7---7----|
 G 7---7---7---7---7---7---7---7---|7---7---7---7---7---7---7---7----|
 D --------------------------------|---------------------------------|
 A --------------------------------|---------------------------------|
 E --------------------------------|---------------------------------|

 


 


 [#6]  

 
 e --------4---4---4-----4-4-------|--------4---4---4--4----4--------|
 B 4-------4---4---4-----4-4-------|--------4---4---4--4----4--------|
 G 4-------4---4---4-----4-4-------|--------4---4---4--4----4--------|
 D 4-------4---4---4-----4-4-------|--------4---4---4--4----4--------|
 A 2-------2-----------------------|---------------------------------|
 E --------------------------------|---------------------------------|


Important: The song above is NOT stored on the Chordie server. The original song is hosted at www.guitaretab.com. Chordie works as a search engine and provides on-the-fly formatting. Chordie does not index songs against artists'/composers' will. To remove this song please click here.

This song is displayed as text-only. Transposing and tuning is only available for chordpro-songs.
Rate #1 of 5 versions

Jango Player

Login - add to songbook

SHARE PAGE  




You need to log in to post comments