Guitar Tabs, Chords and Lyrics
Server problems seems to be fixed. Chordie has been experiencing problems with songs disappearing. These issues now seems to be fixed, but still verifying the fix. If you find anything strange, please email admin@chordie.com.


Message From Your Heart  Kina Grannis

 
 ----------------------------------------------------------------------------

SONG NAME - Band Name
 
 ----------------------------------------------------------------------------

Hey, so as I've posted before, Kina's new album 'Stairwells' is out, and on this album
of her old songs have been changed a bit! So the other tabs are for the original version
the song! Im going to tab the album version! :)
Tuning: Capo 1
Chords Used:
Cmaj7 x35000
Em 022000
D/F# 200230
G 230033
Intro:
[Cmaj7] [Em]  
 
 E|---------------------------------0------0-------0-------0--------|
 A|-3-------3-------3-------3---------------------------------------|
 D|-----5-------5-------5-------5-------2-------2-------2-------2---|
 G|---0-------0-------0-------0-------0-------0-------0-------0-----|
 B|-------0-------0-------0-------0-------0-------0-------0-------0-|
 e|-----------------------------------------------------------------|

[Cmaj7] [Em]  
 
 E|---------------------------------0------0-------0-------0--------|
 A|-3-------3-------3-------3---------------------------------------|
 D|-----5-------5-------5-------5-------2-------2-------2-------2---|
 G|---0-------0-------0-------0-------0-------0-------0-------0-----|
 B|-------0-------0-------0-------0-------0-------0-------0-------0-|
 e|-----------------------------------------------------------------|

Verse:
[Cmaj7] [Em]  
 
 E|---------------------------------0------0-------0-------0--------|
 A|-3-------3-------3-------3---------------------------------------|
 D|-----5-------5-------5-------5-------2-------2-------2-------2---|
 G|---0-------0-------0-------0-------0-------0-------0-------0-----|
 B|-------0-------0-------0-------0-------0-------0-------0-------0-|
 e|-----------------------------------------------------------------|

Don't break me, I bruise easily,
[Cmaj7] [Em]  
 
 E|---------------------------------0------0-------0-------0--------|
 A|-3-------3-------3-------3---------------------------------------|
 D|-----5-------5-------5-------5-------2-------2-------2-------2---|
 G|---0-------0-------0-------0-------0-------0-------0-------0-----|
 B|-------0-------0-------0-------0-------0-------0-------0-------0-|
 e|-----------------------------------------------------------------|

The source of both your love and misery,
[Cmaj7] [Em]  
 
 E|---------------------------------0------0-------0-------0--------|
 A|-3-------3-------3-------3---------------------------------------|
 D|-----5-------5-------5-------5-------2-------2-------2-------2---|
 G|---0-------0-------0-------0-------0-------0-------0-------0-----|
 B|-------0-------0-------0-------0-------0-------0-------0-------0-|
 e|-----------------------------------------------------------------|

I am steady, beating endlessly,
[Cmaj7] [Em]  
 
 E|---------------------------------0------0-------0-------0--------|
 A|-3-------3-------3-------3---------------------------------------|
 D|-----5-------5-------5-------5-------2-------2-------2-------2---|
 G|---0-------0-------0-------0-------0-------0-------0-------0-----|
 B|-------0-------0-------0-------0-------0-------0-------0-------0-|
 e|-----------------------------------------------------------------|

While you are dozing, dreaming pretty things.
Pre-Chorus:
[Cmaj7] [Em] [D/F#] [G] [D/F#]  
 
 E|---------------------------------0------2-------3-------2--------|
 A|-3-------3-------3-------3---------------------------------------|
 D|-----5-------5-------5-------5-------2-------0-------0-------0---|
 G|---0-------0-------0-------0-------0-------2-------0-------2-----|
 B|-------0-------0-------0-------0-------0-------3-------3-------3-|
 e|-----------------------------------------------------------------|

I don't work for free,
Cmaj7 D/F# (strum!)
 
 E|---------------------------------2------2-------2--------2-------|
 A|-3-------3-------3-------3-------------------------------0-------|
 D|-----5-------5-------5-------5-------0-------0-------0---0-------|
 G|---0-------0-------0-------0-------2-------2-------2-----2-------|
 B|-------0-------0-------0-------0-------3-------3-------3-3-------|
 e|---------------------------------------------------------0-------|

Please take care of me.
Chorus: (strum these chords!)
[G]This is a message from your [D/F#]heart
Your most devoted body [Em]part
Taking blood and making[D/F#] art
[G]This is a message from your [D/F#]heart
Pounding away into the [Em]dark
You could thank me for a [D/F#]start
G (hold.)
This is a message from your heart.
(tap on body of guitar along with drum beat, this is how Kina plays it!)
Verse: (strum each chord once, then tap with drum beat!)
[Cmaj7]Don't hurt me, I bleed con[Em]stantly
My e[Cmaj7]fforts leave me but flow [Em]back swiftly
My r[Cmaj7]hythm, soothing, like rai[Em]ndrops steady
On f[Cmaj7]oggy windows when you gaze [Em]outwardly
Pre-chorus:
[Cmaj7] [Em] [D/F#] [G] [D/F#]  
 
 E|---------------------------------0------2-------3-------2--------|
 A|-3-------3-------3-------3---------------------------------------|
 D|-----5-------5-------5-------5-------2-------0-------0-------0---|
 G|---0-------0-------0-------0-------0-------2-------0-------2-----|
 B|-------0-------0-------0-------0-------0-------3-------3-------3-|
 e|-----------------------------------------------------------------|

I don't work for free,
Cmaj7 D/F# (strum!)
 
 E|---------------------------------2------2-------2--------2-------|
 A|-3-------3-------3-------3-------------------------------0-------|
 D|-----5-------5-------5-------5-------0-------0-------0---0-------|
 G|---0-------0-------0-------0-------2-------2-------2-----2-------|
 B|-------0-------0-------0-------0-------3-------3-------3-3-------|
 e|---------------------------------------------------------0-------|

Please take care of me.
Chorus:
[G]This is a message from your [D/F#]heart
Your most devoted body [Em]part
Taking blood and making[D/F#] art
[G]This is a message from your [D/F#]heart
Pounding away into the [Em]dark
You could thank me for a [D/F#]start
This is a message from your [G]heart.[D/F#]
This is a message from your [Em]heart.[D/F#]
Bridge:
G (hold) D/F#(hold) Em(hold) D/F#(hold)
Everytime you sleep, bum bum bum bum....
Everytime you e[G]at, bum bu[D/F#]m bum bum..[Em]..[D/F#]
Everytime you l[G]augh, bum [D/F#]bum bum bum[Em]....[D/F#]
Everytime you c[G]ry, bum bu[D/F#]m bum bum..[Em]..[D/F#]
G D/F# Em D/F# (hold.)
Every time you love, bum bum bum bum.... Ohh, oh
G(hold.)
This is a message from your heart.

Important: The song above is NOT stored on the Chordie server. The original song is hosted at www.guitaretab.com. Chordie works as a search engine and provides on-the-fly formatting. Chordie does not index songs against artists'/composers' will. To remove this song please click here.

Text color:
Chord color:
Chord grids: 
Font size:    
Page size: 

Cmaj7 D/F# Em G
Rate #1 of 7 versions

Login - add to songbook

SHARE PAGE  



You need to log in to post comments