Guitar Tabs, Chords and Lyrics
Server problems seems to be fixed. Chordie has been experiencing problems with songs disappearing. These issues now seems to be fixed, but still verifying the fix. If you find anything strange, please email admin@chordie.com.


Heart and Mind  Kina Grannis

 
 ----------------------------------------------------------------------------

HEART AND MIND - Kina Grannis
 
 ----------------------------------------------------------------------------

This for the album ('Stairwells') version of the song, the youtube version is Capo 5. Enjoy :)
Tuning: Capo 6
Chords Used:
D xx0232
G/B x20033
Cadd9 x23033
Am7 x02010
C/B x20010
C x32010
G 320033
Dsus4/F# 200333
Em7 022033
Intro:
[D] [G/B] [Cadd9]  
 
 e|-------2-------2-------2p0-------------------------------------------|
 B|---3-------3-------3-------3-------3-------3-------3-------3-------3-|
 G|-----2-------2-------2---------0-------0-------0-------0-------0-----|
 D|-0-------0-------0---------------------------------------------------|
 A|-----------------------------2---2---2---2---3---3---3---3---3---3---|
 E|---------------------------------------------------------------------|

Verse:
[D] [G/B] [Cadd9]  
 
 e|-------2-------2-------2p0-------------------------------------------|
 B|---3-------3-------3-------3-------3-------3-------3-------3-------3-|
 G|-----2-------2-------2---------0-------0-------0-------0-------0-----|
 D|-0-------0-------0---------------------------------------------------|
 A|-----------------------------2---2---2---2---3---3---3---3---3---3---|
 E|---------------------------------------------------------------------|

I write you letters from right to left,
[D] [G/B] [Cadd9]  
 
 e|-------2-------2-------2p0-------------------------------------------|
 B|---3-------3-------3-------3-------3-------3-------3-------3-------3-|
 G|-----2-------2-------2---------0-------0-------0-------0-------0-----|
 D|-0-------0-------0---------------------------------------------------|
 A|-----------------------------2---2---2---2---3---3---3---3---3---3---|
 E|---------------------------------------------------------------------|

To see if you have desire yet,
[D] [G/B] [Cadd9]  
 
 e|-------2-------2-------2p0-------------------------------------------|
 B|---3-------3-------3-------3-------3-------3-------3-------3-------3-|
 G|-----2-------2-------2---------0-------0-------0-------0-------0-----|
 D|-0-------0-------0---------------------------------------------------|
 A|-----------------------------2---2---2---2---3---3---3---3---3---3---|
 E|---------------------------------------------------------------------|

To decipher what I said,
[D] [G/B] [Cadd9]  
 
 e|-------2-------2-------2p0-------------------------------------------|
 B|---3-------3-------3-------3-------3-------3-------3-------3-------3-|
 G|-----2-------2-------2---------0-------0-------0-------0-------0-----|
 D|-0-------0-------0---------------------------------------------------|
 A|-----------------------------2---2---2---2---3---3---3---3---3---3---|
 E|---------------------------------------------------------------------|

And learn secrets from my head,
[D] [G/B] [Cadd9]  
 
 e|-------2-------2-------2p0-------------------------------------------|
 B|---3-------3-------3-------3-------3-------3-------3-------3-------3-|
 G|-----2-------2-------2---------0-------0-------0-------0-------0-----|
 D|-0-------0-------0---------------------------------------------------|
 A|-----------------------------2---2---2---2---3---3---3---3---3---3---|
 E|---------------------------------------------------------------------|

Verse 2:
[D] [G/B] [Cadd9]  
 
 e|-------2-------2-------2p0-------------------------------------------|
 B|---3-------3-------3-------3-------3-------3-------3-------3-------3-|
 G|-----2-------2-------2---------0-------0-------0-------0-------0-----|
 D|-0-------0-------0---------------------------------------------------|
 A|-----------------------------2---2---2---2---3---3---3---3---3---3---|
 E|---------------------------------------------------------------------|

It was hard for me to say,
[D] [G/B] [Cadd9]  
 
 e|-------2-------2-------2p0-------------------------------------------|
 B|---3-------3-------3-------3-------3-------3-------3-------3-------3-|
 G|-----2-------2-------2---------0-------0-------0-------0-------0-----|
 D|-0-------0-------0---------------------------------------------------|
 A|-----------------------------2---2---2---2---3---3---3---3---3---3---|
 E|---------------------------------------------------------------------|

those three words that are so brave,
[D] [G/B] [Cadd9]  
 
 e|-------2-------2-------2p0-------------------------------------------|
 B|---3-------3-------3-------3-------3-------3-------3-------3-------3-|
 G|-----2-------2-------2---------0-------0-------0-------0-------0-----|
 D|-0-------0-------0---------------------------------------------------|
 A|-----------------------------2---2---2---2---3---3---3---3---3---3---|
 E|---------------------------------------------------------------------|

I almost kept them locked away,
[D] [G/B] [Cadd9]  
 
 e|-------2-------2-------2p0-------------------------------------------|
 B|---3-------3-------3-------3-------3-------3-------3-------3-------3-|
 G|-----2-------2-------2---------0-------0-------0-------0-------0-----|
 D|-0-------0-------0---------------------------------------------------|
 A|-----------------------------2---2---2---2---3---3---3---3---3---3---|
 E|---------------------------------------------------------------------|

deep inside where they'd be safe.
[D] [G/B] [Cadd9]  
 
 e|-------2-------2-------2p0-------------------------------------------|
 B|---3-------3-------3-------3-------3-------3-------3-------3-------3-|
 G|-----2-------2-------2---------0-------0-------0-------0-------0-----|
 D|-0-------0-------0---------------------------------------------------|
 A|-----------------------------2---2---2---2---3---3---3---3---3---3---|
 E|---------------------------------------------------------------------|

Pre-Chorus:
[Am7] [C/B] [C] [C/B]  
 
 e|-----------------------------------------------------------------|
 B|-------1-------1-------1-------1-------1-------1-------1-------1-|
 G|---0-------0-------0-------0-------0-------0-------0-------0-----|
 D|-----------------------------------------------------------------|
 A|-0---0---0---0---2---2---2---2---3---3---3---3---3---3---2---2---|
 E|-----------------------------------------------------------------|

Always tryin to find
[Am7] [C/B] [C] [C/B]  
 
 e|-----------------------------------------------------------------|
 B|-------1-------1-------1-------1-------1-------1-------1-------1-|
 G|---0-------0-------0-------0-------0-------0-------0-------0-----|
 D|-----------------------------------------------------------------|
 A|-0---0---0---0---2---2---2---2---3---3---3---3---3---3---2---2---|
 E|-----------------------------------------------------------------|

A safer place to hide.
Chorus:
[G] [Dsus4/F#]  
 
 e|-----------------------------------------------------------------|
 B|-------3-------3-------3-------3-------3-------3-------3-------3-|
 G|---0-------0-------0-------0-------2-------2-------2-------2-----|
 D|-----------------------------------------------------------------|
 A|-----------------------------------------------------------------|
 E|-3---3---3---3---3---3---3---3---2---2---2---2---2---2---2---2---|

Always felt I was protecting my
[Em7] [Cadd9]  
 
 e|-----------------------------------------------------------------|
 B|-------3-------3-------3-------3-------3-------3-------3-------3-|
 G|---0-------0-------0-------0-------0-------0-------0-------0-----|
 D|-----------------------------------------------------------------|
 A|---------------------------------3---3---3---3---3---3---3---3---|
 E|-0---0---0---0---0---0---0---0-----------------------------------|

Heart and mind, heart and mind
[G] [Dsus4/F#]  
 
 e|-----------------------------------------------------------------|
 B|-------3-------3-------3-------3-------3-------3-------3-------3-|
 G|---0-------0-------0-------0-------2-------2-------2-------2-----|
 D|-----------------------------------------------------------------|
 A|-----------------------------------------------------------------|
 E|-3---3---3---3---3---3---3---3---2---2---2---2---2---2---2---2---|

but it seems like, to really feel alive
[Em7] [Cadd9]  
 
 e|-----------------------------------------------------------------|
 B|-------3-------3-------3-------3-------3-------3-------3-------3-|
 G|---0-------0-------0-------0-------0-------0-------0-------0-----|
 D|-----------------------------------------------------------------|
 A|---------------------------------3---3---3---3---3---3---3---3---|
 E|-0---0---0---0---0---0---0---0-----------------------------------|

I cannot hide my heart and mind.
[G] [Dsus4/F#]  
 
 e|-----------------------------------------------------------------|
 B|-------3-------3-------3-------3-------3-------3-------3-------3-|
 G|---0-------0-------0-------0-------2-------2-------2-------2-----|
 D|-----------------------------------------------------------------|
 A|-----------------------------------------------------------------|
 E|-3---3---3---3---3---3---3---3---2---2---2---2---2---2---2---2---|

[Em7] [Cadd9]  
 
 e|-----------------------------------------------------------------|
 B|-------3-------3-------3-------3-------3-------3-------3-------3-|
 G|---0-------0-------0-------0-------0-------0-------0-------0-----|
 D|-----------------------------------------------------------------|
 A|---------------------------------3---3---3---3---3---3---3---3---|
 E|-0---0---0---0---0---0---0---0-----------------------------------|

Verse:
[D] [G/B] [Cadd9]  
 
 e|-------2-------2-------2p0-------------------------------------------|
 B|---3-------3-------3-------3-------3-------3-------3-------3-------3-|
 G|-----2-------2-------2---------0-------0-------0-------0-------0-----|
 D|-0-------0-------0---------------------------------------------------|
 A|-----------------------------2---2---2---2---3---3---3---3---3---3---|
 E|---------------------------------------------------------------------|

And I don't why I get shy
[D] [G/B] [Cadd9]  
 
 e|-------2-------2-------2p0-------------------------------------------|
 B|---3-------3-------3-------3-------3-------3-------3-------3-------3-|
 G|-----2-------2-------2---------0-------0-------0-------0-------0-----|
 D|-0-------0-------0---------------------------------------------------|
 A|-----------------------------2---2---2---2---3---3---3---3---3---3---|
 E|---------------------------------------------------------------------|

Tucked away inside my mind
[D] [G/B] [Cadd9]  
 
 e|-------2-------2-------2p0-------------------------------------------|
 B|---3-------3-------3-------3-------3-------3-------3-------3-------3-|
 G|-----2-------2-------2---------0-------0-------0-------0-------0-----|
 D|-0-------0-------0---------------------------------------------------|
 A|-----------------------------2---2---2---2---3---3---3---3---3---3---|
 E|---------------------------------------------------------------------|

scared to let someone inside
[D] [G/B] [Cadd9]  
 
 e|-------2-------2-------2p0-------------------------------------------|
 B|---3-------3-------3-------3-------3-------3-------3-------3-------3-|
 G|-----2-------2-------2---------0-------0-------0-------0-------0-----|
 D|-0-------0-------0---------------------------------------------------|
 A|-----------------------------2---2---2---2---3---3---3---3---3---3---|
 E|---------------------------------------------------------------------|

I sit silent in disguise
[D] [G/B] [Cadd9]  
 
 e|-------2-------2-------2p0-------------------------------------------|
 B|---3-------3-------3-------3-------3-------3-------3-------3-------3-|
 G|-----2-------2-------2---------0-------0-------0-------0-------0-----|
 D|-0-------0-------0---------------------------------------------------|
 A|-----------------------------2---2---2---2---3---3---3---3---3---3---|
 E|---------------------------------------------------------------------|

Pre-Chorus:
[Am7] [C/B] [C] [C/B]  
 
 e|-----------------------------------------------------------------|
 B|-------1-------1-------1-------1-------1-------1-------1-------1-|
 G|---0-------0-------0-------0-------0-------0-------0-------0-----|
 D|-----------------------------------------------------------------|
 A|-0---0---0---0---2---2---2---2---3---3---3---3---3---3---2---2---|
 E|-----------------------------------------------------------------|

Always tryin to find
[Am7] [C/B] [C] [C/B]  
 
 e|-----------------------------------------------------------------|
 B|-------1-------1-------1-------1-------1-------1-------1-------1-|
 G|---0-------0-------0-------0-------0-------0-------0-------0-----|
 D|-----------------------------------------------------------------|
 A|-0---0---0---0---2---2---2---2---3---3---3---3---3---3---2---2---|
 E|-----------------------------------------------------------------|

A safer place to hide.
Chorus:
[G] [Dsus4/F#]  
 
 e|-----------------------------------------------------------------|
 B|-------3-------3-------3-------3-------3-------3-------3-------3-|
 G|---0-------0-------0-------0-------2-------2-------2-------2-----|
 D|-----------------------------------------------------------------|
 A|-----------------------------------------------------------------|
 E|-3---3---3---3---3---3---3---3---2---2---2---2---2---2---2---2---|

Always felt I was protecting my
[Em7] [Cadd9]  
 
 e|-----------------------------------------------------------------|
 B|-------3-------3-------3-------3-------3-------3-------3-------3-|
 G|---0-------0-------0-------0-------0-------0-------0-------0-----|
 D|-----------------------------------------------------------------|
 A|---------------------------------3---3---3---3---3---3---3---3---|
 E|-0---0---0---0---0---0---0---0-----------------------------------|

Heart and mind, heart and mind
[G] [Dsus4/F#]  
 
 e|-----------------------------------------------------------------|
 B|-------3-------3-------3-------3-------3-------3-------3-------3-|
 G|---0-------0-------0-------0-------2-------2-------2-------2-----|
 D|-----------------------------------------------------------------|
 A|-----------------------------------------------------------------|
 E|-3---3---3---3---3---3---3---3---2---2---2---2---2---2---2---2---|

but it seems like, to really feel alive
[Em7] [Cadd9]  
 
 e|-----------------------------------------------------------------|
 B|-------3-------3-------3-------3-------3-------3-------3-------3-|
 G|---0-------0-------0-------0-------0-------0-------0-------0-----|
 D|-----------------------------------------------------------------|
 A|---------------------------------3---3---3---3---3---3---3---3---|
 E|-0---0---0---0---0---0---0---0-----------------------------------|

I cannot hide my heart and mind.
[G] [Dsus4/F#]  
 
 e|-----------------------------------------------------------------|
 B|-------3-------3-------3-------3-------3-------3-------3-------3-|
 G|---0-------0-------0-------0-------2-------2-------2-------2-----|
 D|-----------------------------------------------------------------|
 A|-----------------------------------------------------------------|
 E|-3---3---3---3---3---3---3---3---2---2---2---2---2---2---2---2---|

[Em7] [Cadd9]  
 
 e|-----------------------------------------------------------------|
 B|-------3-------3-------3-------3-------3-------3-------3-------3-|
 G|---0-------0-------0-------0-------0-------0-------0-------0-----|
 D|-----------------------------------------------------------------|
 A|---------------------------------3---3---3---3---3---3---3---3---|
 E|-0---0---0---0---0---0---0---0-----------------------------------|

Bridge:
[Am7] [C/B] [C] [C/B]  
 
 e|-----------------------------------------------------------------|
 B|-------1-------1-------1-------1-------1-------1-------1-------1-|
 G|---0-------0-------0-------0-------0-------0-------0-------0-----|
 D|-----------------------------------------------------------------|
 A|-0---0---0---0---2---2---2---2---3---3---3---3---3---3---2---2---|
 E|-----------------------------------------------------------------|

The day I found a stregnth inside
[Am7] [C/B] [C] [C/B]  
 
 e|-----------------------------------------------------------------|
 B|-------1-------1-------1-------1-------1-------1-------1-------1-|
 G|---0-------0-------0-------0-------0-------0-------0-------0-----|
 D|-----------------------------------------------------------------|
 A|-0---0---0---0---2---2---2---2---3---3---3---3---3---3---2---2---|
 E|-----------------------------------------------------------------|

just by finally realising
[Am7] [C/B] [C] [C/B]  
 
 e|-----------------------------------------------------------------|
 B|-------1-------1-------1-------1-------1-------1-------1-------1-|
 G|---0-------0-------0-------0-------0-------0-------0-------0-----|
 D|-----------------------------------------------------------------|
 A|-0---0---0---0---2---2---2---2---3---3---3---3---3---3---2---2---|
 E|-----------------------------------------------------------------| 

there's a truth that is inside that I really cannot hide my
heart and mind.
Chorus:
[G] [Dsus4/F#]  
 
 e|-----------------------------------------------------------------|
 B|-------3-------3-------3-------3-------3-------3-------3-------3-|
 G|---0-------0-------0-------0-------2-------2-------2-------2-----|
 D|-----------------------------------------------------------------|
 A|-----------------------------------------------------------------|
 E|-3---3---3---3---3---3---3---3---2---2---2---2---2---2---2---2---|

Always felt I was protecting my
[Em7] [Cadd9]  
 
 e|-----------------------------------------------------------------|
 B|-------3-------3-------3-------3-------3-------3-------3-------3-|
 G|---0-------0-------0-------0-------0-------0-------0-------0-----|
 D|-----------------------------------------------------------------|
 A|---------------------------------3---3---3---3---3---3---3---3---|
 E|-0---0---0---0---0---0---0---0-----------------------------------|

Heart and mind, heart and mind
[G] [Dsus4/F#]  
 
 e|-----------------------------------------------------------------|
 B|-------3-------3-------3-------3-------3-------3-------3-------3-|
 G|---0-------0-------0-------0-------2-------2-------2-------2-----|
 D|-----------------------------------------------------------------|
 A|-----------------------------------------------------------------|
 E|-3---3---3---3---3---3---3---3---2---2---2---2---2---2---2---2---|

but it seems like, to really feel alive
[Em7] [Cadd9]  
 
 e|-----------------------------------------------------------------|
 B|-------3-------3-------3-------3-------3-------3-------3-------3-|
 G|---0-------0-------0-------0-------0-------0-------0-------0-----|
 D|-----------------------------------------------------------------|
 A|---------------------------------3---3---3---3---3---3---3---3---|
 E|-0---0---0---0---0---0---0---0-----------------------------------|

I cannot hide my heart and mind.
[G] [Dsus4/F#]  
 
 e|-----------------------------------------------------------------|
 B|-------3-------3-------3-------3-------3-------3-------3-------3-|
 G|---0-------0-------0-------0-------2-------2-------2-------2-----|
 D|-----------------------------------------------------------------|
 A|-----------------------------------------------------------------|
 E|-3---3---3---3---3---3---3---3---2---2---2---2---2---2---2---2---|

[Em7] [Cadd9] [G]  
 
 e|-------------------------------------------------------------------|
 B|-------3-------3-------3-------3-------3-------3-------3-------3---|
 G|---0-------0-------0-------0-------0-------0-------0-------0-------|
 D|-------------------------------------------------------------------|
 A|---------------------------------3---3---3---3---3---3---3---3-----|
 E|-0---0---0---0---0---0---0---0-----------------------------------3-|

I cannot hide my heart and mind.

Important: The song above is NOT stored on the Chordie server. The original song is hosted at www.guitaretab.com. Chordie works as a search engine and provides on-the-fly formatting. Chordie does not index songs against artists'/composers' will. To remove this song please click here.

Text color:
Chord color:
Chord grids: 
Font size:    
Page size: 

Am7 C C/B Cadd9 D Dsus4/F# Em7 G G/B
Rate #0 of 2 versions

Login - add to songbook

SHARE PAGE  



You need to log in to post comments