Guitar Tabs, Chords and Lyrics
Major upgrade!! After one year development the new version of Chordie is now online! Please give feedback.


Admiral  King Creosote

First tab, so go easy...
Standard EADGBe tuning.
Play the following once for the Intro:
[G]  
 
 --------------------------------------|
 -----------3-------3-------3-------3--|
 -------0-------0-------0-------0------|
 ---------0-------0-------0-------0----|
 --------------------------------------|
 -----3-------3-------3-------3--------|

[D/A]  
 
 ----------(2)------2------(2)---------|
 -----------3------(3)------3-------0--|
 -------2-------2-------2-------2------|
 ---------0-------0-------0-------0----|
 -----0-------0-------0-------0--------|
 --------------------------------------|

[Am]  
 
 ----------(0)-----(0)-----(0)-----(0)-|
 -----------1-------1-------1-------1--|
 -------2-------2-------2-------2------|
 ---------2-------2-------2-------2----|
 -----0-------0-------0-------0--------|
 --------------------------------------|

[D7]  
 
 -----------2-------2-------2-----------|
 -------1--(1)--1--(1)--1--(1)--1---0---|
 ---------2-------2-------2-------2-----|
 -----0-------0-------0-------0---------|
 ---------------------------------------|
 ---------------------------------------|

For the Em chord that appears at the end of verses 2 and 4 and the Chorus/Outro, pluck
the same pattern as for the G chord.
Verse 1
[G]Girlfriend for you I have[D/A] fallen
Just a [Am]little way in, I'm just a [D7]little bit sore
Verse 2
[G]Girlfriend for you I have [D/A]spoken out
Am D7 G* Em
Taken a hefty clout, to the jawbone for my sins
For my [Am]sins [D7] (* note - play G with the 'B' string open)
Verse 3
[G]Girlfriend you may not [D/A]like me much
When I [Am]mention such and such, to this old [D7]so and so
But you know how
Verse 4
[G]Girlfriend you've carved a [D/A]hairline scratch
Into this [Am]granite heart, and its here I [D7]falter[Am] [Em] [G] [Am] [D7]
Verse 5
[G]Girlfriend it's you I'd scuttle the [D/A]fleet for
Make my first mate walk the [Am]plank for
Admire the [D7]all or nothing
Chorus/Outro
[G] Im admiral of [Em]nothing at al[Am]l
Nothing a[D7]t all
[G] Im admirmal of [Em]nothing at [Am]all
[D7]Admire the all or nothing

Important: The song above is NOT stored on the Chordie server. The original song is hosted at www.guitaretab.com. Chordie works as a search engine and provides on-the-fly formatting. Chordie does not index songs against artists'/composers' will. To remove this song please click here.

Text color:
Chord color:
Chord grids: 
Font size:    
Page size: 

Am D7 Em G
Rate #0 of 3 versions

Jango Player

Login - add to songbook

SHARE PAGE  



You need to log in to post comments