Guitar Tabs, Chords and Lyrics
Major upgrade!! After one year development the new version of Chordie is now online! Please give feedback.


Sarah√Ę??s Night   King Diamond

 
 e|-----------------------------------------------|
 B|-----------------------------------------------|
 G|-----------------------------------------------|
 D|-------6-7-9-7--------6-7-6-7-6--------6-7-9-7-|
 A|-6-8-9----------6-8-9------------6-8-9---------|
 E|-----------------------------------------------|

 


 x2


 

 
 e|----------------------------------------|
 B|----------------------------------------|
 G|----------------------------------------|
 D|----------------------------------------|
 A|-7-6--7-6--7-6--7-6--8-7--8-7--8-7--8-7-|
 E|----------------------------------------|

 


 


 Riff 2 (distortion)


 

 
 e|-------------------------------------------|
 B|-------------------------------------------|
 G|-------------------------------------------|
 D|-------------------7-6--7-6----------------|
 A|-1-----4-----1------------------1----4-----|
 E|-------------------------------------------|

 


 "Salem's standing..."


 


 Riff 3


 

 
 e|--------------------------------------------|
 B|--------------------------------------------|
 G|--------------------------------------------|
 D|--------------------------------------------|
 A|-7-6--7-6--7-7-6--7-6--8-7--8-7--8-8-7--8-7-|
 E|--------------------------------------------|

 


 "Twisting, turning..."


 

 
 e|------------------------------------------------|
 B|------------------------------------------------|
 G|------------------------------------------------|
 D|-6-5--6-5--6-6-5--6-5--7-6--7-6--7-7-6--7-6-----|
 A|----------------------------------------------4-|
 E|------------------------------------------------|

 


 "I am invisible..."


 


 Play Riff 1 "I open up my hand..."


 


 Riff 2a


 

 
 e|--------------------------------------|
 B|--------------------------------------|
 G|--------------------------------------|
 D|--8----11-----8-----7-6-7-6--8----11--|
 A|--6-----9-----6--------------6-----9--|
 E|--------------------------------------|

 


 "Violently..."


 


 Riff 4 (solo rhythm)


 

 
 e|---------------------------------------------|
 B|---------------------------------------------|
 G|---------------------------------------------|
 D|---------------------------------------------|
 A|-4----------4-5-----------4-----------4-5----|
 E|---------------------------------------------|

 


 


 Solo


 NOTE: These bends are most likely from a tremolo bar,


 but it's arranged so you won't need one, except for the ending.


 

 
 e|-----------------------------------------------|
 B|-----------------------------------------------|
 G|-[15]17r15-13----[12]13r12-13-[12]14r12--------|
 D|----------------------------------------15-15--|
 A|-----------------------------------------------|
 E|-----------------------------------------------|
 e|----------------------------------|
 B|-15b18--18-17-15-[15]17r15--------|
 G|---------------------------13-13--|
 D|----------------------------------|
 A|----------------------------------|
 E|----------------------------------|
 e|--------------------------------------------|
 B|-[15]17r16-14-------------------------------|
 G|-------------[17]19r17-14-14-[tremolo dive]-|
 D|--------------------------------------------|
 A|--------------------------------------------|
 E|--------------------------------------------|

 


 End solo


 


 Play Riff 2 "Sarah speaks in..."


 Play Riff 3 "In comes grandpa..."


 


 Lead into next section:


 

 
 e|-------------|
 B|-------------|
 G|-------------|
 D|-------------|
 A|--7---6---5--|
 E|-------------|


Important: The song above is NOT stored on the Chordie server. The original song is hosted at www.guitaretab.com. Chordie works as a search engine and provides on-the-fly formatting. Chordie does not index songs against artists'/composers' will. To remove this song please click here.

This song is displayed as text-only. Transposing and tuning is only available for chordpro-songs.
Rate #2 of 2 versions

Jango Player

Login - add to songbook

SHARE PAGE  




You need to log in to post comments