Guitar Tabs, Chords and Lyrics
Major upgrade!! After one year development the new version of Chordie is now online! Please give feedback.


Never Met a Girl Like You Before  The Kinks

Tabbed By: Dorteater
Band: The Kinks
Song: Never Met a Girl Like You Before
INTRO: Cm,Fm,Gm
Cm,Fm,Cm
Cm,Fm,Gm
Cm,Fm,Cm
VERSE1
Cm Fm Gm Cm, Fm, Cm
IVE NEVER KNOWN A GIRL ....
Cm Fm Gm Cm, Fm, Cm
NOW JUST LIKE IN A ...
Cm Fm Gm Cm, Fm, Cm
HERE YOU COME KNOCKIN' ....
Cm Fm Gm Cm, Fm, Cm
AND I'VE NEVER MET A ....
SOLO1
 
 |-------------------6-3--|-------------------------|
 |----4-6/8\6-4-----4-----|----4-6/8\6-4-----3------|
 |--5-----------5-5-------|--5-----------5-5---3-6--|
 |------------------------|-------------------------|
 |------------------------|-------------------------|
 |------------------------|-------------------------|

VERSE2 (SAME CHORDS AS IN VERSE1)
YOU GIVE ME JUST A TASTE SO I ....
SOLO1
BRIDGE1 (OR WHATEVER)
YOU'VE [Cm]MADE ME ...[Gm]
I [Cm]HOPE TO GOD I'M ...[Gm]
I [Cm]HOPE THAT I'M ..[Gm]
[Cm]KNOW THAT I'M TALKING `...[Gm]
Cm Fm Gm Cm, Fm, Cm
AND I'VE NEVER ...
[Cm]NEVER, NEVER ,[Fm]....[Gm]
Cm Fm Gm Cm, Fm, Cm
NEVER KNOWN A ....
SOLO2
 
 |------6-8--|--10-11-13--|---------------|---------------------------|
 |----4------|------------|----4-6-4-6^.....6-4---4---------3-----4--|
 |--5--------|------------|--5------------|------5---5-3---3---3-5----|
 |-----------|------------|---------------|--------------5------------|
 |-----------|------------|---------------|---------------------------|
 |-----------|------------|---------------|---------------------------| 

BRIDGE2 (SAME CHORDS AS IN BRIDGE1)
THIS OLD TOWN HAS .....
[Cm] YES ALL[Fm]RIGHT, [Gm]....[Cm]

Important: The song above is NOT stored on the Chordie server. The original song is hosted at www.guitaretab.com. Chordie works as a search engine and provides on-the-fly formatting. Chordie does not index songs against artists'/composers' will. To remove this song please click here.

Text color:
Chord color:
Chord grids: 
Font size:    
Page size: 

Cm Fm Gm
Rate #3 of 10 versions

Login - add to songbook

SHARE PAGE  




You need to log in to post comments