Guitar Tabs, Chords and Lyrics
Major upgrade!! After one year development the new version of Chordie is now online! Please give feedback.


I Want You   KISS

 
 Eb|--------3-----------2--------------0-------0------------|
 Bb|--3--------3-----------3-----------0----0-----0---------|
 Gb|--0--------------2--------------------------------------|
 Db|-----0--------0-----------------2-----------------------|
 Ab|-----------------------------2--------------------------|
 Eb|--------------------------0-----------------------------|
 Eb|-----0--------------2--------0-------------12*----------|
 Bb|--------0--------------3-----------0-------12*----------|
 Gb|-----------0-----2----------------------0---------------|
 Db|--------------0-----------------2-----------------------|
 Ab|--3-----------------------------------------------------|
 Eb|--------------------------0-----------------------------|
 Eb|-------------------------------------------7------------|
 Bb|--------0-----------7--------------8--------------------|
 Gb|-----------0-----------7-----9----------9-----9---------|
 Db|-----2-----------7--------------9-----------------------|
 Ab|--3-----------5-----------------------------------------|
 Eb|--------------------------7-----------------------------|

 


 


 


 Rhythm Fig. 1b (6-string acoustic)


 

 
 Eb|--------3----------2-------------0-------0--------------|
 Bb|--------3----------3-------------0----------0-----------|
 Gb|-----0----------2---------------------------------------|
 Db|--0----------0----------------2-------2-----------------|
 Ab|---------------------------2----------------------------|
 Eb|------------------------0-------------------------------|
 Eb|-----0-----------5-----------0-----0-------0------------|
 Bb|--------0-----7-----7-------------------0-----0---------|
 Gb|-----------------------7--------------------------------|
 Db|--------------------------------2-----------------------|
 Ab|--3--------3--5-----------2-----------------------------|
 Eb|--------------------------0-----------------------------|
 Eb|-----0-----------2-----------0-----0-------0------------|
 Bb|--------0-----------3-------------------0-----0---------|
 Gb|-----------0-----------2--------------------------------|
 Db|--------------0-----------------2-----------------------|
 Ab|--3-----------------------2-----------------------------|
 Eb|--------------------------------------------------------|

 


 


 


 Rhythm Fig. 2


 

 
 Eb|--------------------------------------------------------|
 Bb|--------------------------------------------------------|
 Gb|--5--5--5--5--5--5--5--5---7--7--7--7--7--7--7--7--7----|
 Db|--5--5--5--5--5--5--5--5---7--7--7--7--7--7--7--7--7----|
 Ab|--3--3--3--3--3--3--3--3---5--5--5--5--5--5--5--5--5----|
 Eb|--------------------------------------------------------|
 < - - - - - 2x - - - - >

 


 


 


 Rhythm Fig. 4a


 

 
 Eb|--------------------------------------------------------|
 Bb|--------------------------------------------------------|
 Gb|-----------------------5~-------------------------------|
 Db|-----------------------5~------------5-7(5)-------------|
 Ab|--------7~-----------------------7~----------7(5)-------|
 Eb|--0---0------0-0-5-6-7------0---0-----------------------|

 


 P.M. P.M. - -> P.M.


 


 


 Rhythm Fig. 4b (P.M. on open 6th)


 

 
 Eb|--------------------------------------------------------|
 Bb|--------------------------------------------------------|
 Gb|--------9\--------5~---------9\---12--------------------|
 Db|--------9\--------5~---------9\---12----12--------------|
 Ab|--------7\-------------------7\---10----12--------------|
 Eb|--0---0----------------0---0------------10--------------|

 


 


 


 Rhythm Fig. 5a


 

 
 Eb|--------------------------------------------------------|
 Bb|--------------------------------------------------------|
 Gb|-----------------------5~-------------------------------|
 Db|-----------------------5~-------------------------------|
 Ab|--------7~-----------------------7~---7-5---------------|
 Eb|--0---0------0-0-5-6-7-----0---0----------7-6-5-2~------|

 


 P.M. P.M. - -> P.M.


 


 


 Rhythm Fig. 5b (P.M. on open 6th)


 

 
 Eb|--------------------------------------------------------|
 Bb|--------------------------------------------------------|
 Gb|--------9\--------5~--------9\--------------------------|
 Db|--------9\--------5~--------9\--------------------------|
 Ab|--------7\------------------7\---7-5--------------------|
 Eb|--0---0---------------0---0----------7-6-5-2~-----------|

 


 


 


 Rhythm Fig. 6a


 

 
 Eb|--------------------------------------------------------|
 Bb|--------------------------------------------------------|
 Gb|-----------------------5~---------------------5--7------|
 Db|-----------------------5~---------------------5--7------|
 Ab|--------7~-----------------------7~---------------------|
 Eb|--0---0------0-0-5-6-7-----0---0------0-5-6-7-----------|

 


 P.M. P.M. - -> P.M. P.M. ->


 


 


 Rhythm Fig. 6b (P.M. on open 6th)


 

 
 Eb|--------------------------------------------------------|
 Bb|--------------------------------------------------------|
 Gb|--------9\--------5~--------9\-------5--7---------------|
 Db|--------9\--------5~--------9\-------5--7---------------|
 Ab|--------7\------------------7\-------3--5---------------|
 Eb|--0---0---------------0---0-----------------------------|

 


 


 


 Rhythm Fig. 7 (P.M. on open 6th)


 

 
 Eb|--------------------------------------------------------|
 Bb|--------------------------------------------------------|
 Gb|----------------------------9------------9--------------|
 Db|--5--------7----------------9------------9--------------|
 Ab|--5--------7----------------7------------7--------------|
 Eb|--3--------5--------0-0-0-0------0-0-0-0----------------|

 


 


 


 Rhythm Fig. 8a


 

 
 Eb|--------------------------------------------------------|
 Bb|--------------------------------------------------------|
 Gb|---------------------5--------4-------------------------|
 Db|--5--------7---------5--------5-------------------------|
 Ab|--5--------7---------3--------2-------------------------|
 Eb|--3--------5--------------------------------------------|
 Eb|--------------------------------------------------------|
 Bb|--------------------------------------------------------|
 Gb|--------------------------------------------------------|
 Db|--7--------5---------9-9-9-9-9-9-9-9-9------------------|
 Ab|--7--------5---------9-9-9-9-9-9-9-9-9------------------|
 Eb|--5--------3---------7-7-7-7-7-7-7-7-7------------------|

 


 


 


 Rhythm Fig. 8b


 

 
 Eb|--------------------------------------------------------|
 Bb|--------------------------------------------------------|
 Gb|---------------------5--------4-------------------------|
 Db|--5--------7---------5--------5-------------------------|
 Ab|--5--------7---------3--------2-------------------------|
 Eb|--3--------5--------------------------------------------|
 Eb|--------------------------------------------------------|
 Bb|--------------------------------------------------------|
 Gb|--------------------------------------------------------|
 Db|--7--------5---------9----------------------------------|
 Ab|--7--------5---------9----------------------------------|
 Eb|--5--------3---------7\---5\---3\---2-------------------|

 


 


 Rhythm Fig. 9 (P.M. on open 6th)


 

 
 Eb|--------------------------------------------------------|
 Bb|----------8--------------------------8------------------|
 Gb|----------9--------------7~----------9---------5/7------|
 Db|----------9--------------7~----------9----7----5/7------|
 Ab|----------7--------------5~----------7----7-------------|
 Eb|--0-0-0-0------0-0-0-0-0-----0-0-0-0------5-------------|
 < - - - - - - - - - - - 2x - - - - - - - - - - - - >
 Eb|--------------------------------------------------------|
 Bb|----------8--------------------------8------------------|
 Gb|----------9--------------7~----------9-----------7~-----|
 Db|----------9--------------7~----------9----7------7~-----|
 Ab|----------7--------------5~----------7----7----0--------|
 Eb|--0-0-0-0------0-0-0-0-0-----0-0-0-0------5-------------|
 Eb|--------------------------------------------------------|
 Bb|----------8--------------------------8------------------|
 Gb|----------9--------------7~----------9------------------|
 Db|----------9--------------7~----------9------------------|
 Ab|----------7--------------5~----------7----7-5-----------|
 Eb|--0-0-0-0------0-0-0-0-0-----0-0-0-0----------7-6-5-2---|

 


 


 


 Rhythm Fig. 10a (12-string acoustic)


 

 
 Eb|--------3-----------2--------------0-------0------------|
 Bb|-----------3--3--------3--------0-------0-----0---------|
 Gb|--0--0-----------2-----------0--------------------------|
 Db|--0-----------0-----------2-----------------------------|
 Ab|--------------------------------------------------------|
 Eb|--------------------------------------------------------|
 Eb|--------------------0-----0--------0-------12*----------|
 Bb|--------0-----3--------3-----0----------0--12*----------|
 Gb|-----------0-----2--------------0-----------------------|
 Db|-----2--------0-----------------------------------------|
 Ab|--3-----------------------------------------------------|
 Eb|--------------------------0-----------------------------|
 Eb|--------0-----------0--------------0-------0------------|
 Bb|-----------0-----------3-----0----------0---------------|
 Gb|-----0-----------2--------------0-----------------------|
 Db|--------------0-----------2-----------------------------|
 Ab|--3-----------------------------------------------------|
 Eb|--------------------------------------------------------|

 


 


 


 Rhythm Fig. 10b (6-string acoustic)


 

 
 Eb|--------3-----------2-----0--------0--------0-----------|
 Bb|-----------3-----------3-----0--------0--------0--------|
 Gb|-----0-----------2--------------------------------------|
 Db|--0-----------0-----------------2--------2--------------|
 Ab|--------------------------------------------------------|
 Eb|--------------------------------------------------------|
 Eb|--0-----------------0-----0--------0--------0-----------|
 Bb|--------0--------------3-----0--------0--------0--------|
 Gb|-----------0-----2--------------------------------------|
 Db|-----2--------0-----------------2--------2--------------|
 Ab|--------------------------------------------------------|
 Eb|--------------------------------------------------------|
 Eb|-----0--------------0-----0--------0--------0-----------|
 Bb|--------0--------------3-----0--------0--------0--------|
 Gb|-----------0-----2--------------------------------------|
 Db|--------------0-----------------2--------2--------------|
 Ab|--3-----------------------------------------------------|
 Eb|--------------------------------------------------------|

 


 


 Riff 1


 

 
 Eb|------12--------12--------------------------------------|
 Bb|------15b~------15b~------------------------------------|
 Gb|--------------------------------------------------------|
 Db|--------------------------------------------------------|
 Ab|--------------------------------------------------------|
 Eb|--------------------------------------------------------|

 


 


 Riff 2


 

 
 Eb|--------------------------------------------------------|
 Bb|--------------------------------------------------------|
 Gb|--9-7---------------------------------------------------|
 Db|------9-8-7---------------------------------------------|
 Ab|------------9~--10--------------------------------------|
 Eb|--------------------------------------------------------|

 


 


 


 Riff 3


 

 
 Eb|------12-----------------15----17-----------------------|
 Bb|------15b~---------------18b---20b----------------------|
 Gb|--------------------------------------------------------|
 Db|--------------------------------------------------------|
 Ab|--------------------------------------------------------|
 Eb|--------------------------------------------------------|

 


 


 


 Solo 1 (Paul)


 


 

 
 Eb|--------------------------------------------------------|
 Bb|--------------------------------------------------------|
 Gb|--14b~----------14--12--14-14b----r14p12--------12b-----|
 Db|-----------------------------------------14-------------|
 Ab|--------------------------------------------------------|
 Eb|--------------------------------------------------------|
 Eb|----15b~----15-14-15-14---------------------------------|
 Bb|-12---------------------15---15--15b~-------------------|
 Gb|--------------------------14--------------14b-14-12-11--|
 Db|--------------------------------------------------------|
 Ab|--------------------------------------------------------|
 Eb|--------------------------------------------------------|
 Eb|--------------------------------------------------------|
 Bb|--------------------------------------------------------|
 Gb|--------------------------------------------------------|
 Db|--14--12--14~-------------------------------------------|
 Ab|--------------------------------------------------------|
 Eb|--------------------------------------------------------|

 


 


 


 Solo 2 (Ace)


 


 

 
 Eb|--22------------22----------22------------22------------|
 Bb|----22pb---r22----22pb---r22---22pb---r22----22pb---r22-|
 Gb|--------------------------------------------------------|
 Db|--------------------------------------------------------|
 Ab|--------------------------------------------------------|
 Eb|--------------------------------------------------------|
 Eb|--------------------------------------------------------|
 Bb|--20----------------------------------------------------|
 Gb|-----21\------------------------12----12-14-14b-r14p12--|
 Db|--------------------------12-14----14-------------------|
 Ab|-----------------10-12-14-------------------------------|
 Eb|-----------10-12----------------------------------------|

 


 Light P.M. - - - - >


 


 

 
 Eb|--------------------------------------------------------|
 Bb|--------------------------15b~---------/17\-------------|
 Gb|--14~----14-12-14b-r14p12-------------------------------|
 Db|--------------------------------------------------------|
 Ab|--------------------------------------------------------|
 Eb|--------------------------------------------------------|
 Eb|-----17b~------17b-r17----------------------------------|
 Bb|--15-------------------17----17-15-17b-r17p15-17b^^~----|
 Gb|--------------------------------------------------------|
 Db|--------------------------------------------------------|
 Ab|--------------------------------------------------------|
 Eb|--------------------------------------------------------|
 Eb|--------------------------------------------------------|
 Bb|--17b^^~---17b^^~---17b-17r-15--------------------------|
 Gb|-------------------------------16-14h16p14----12-14b~---|
 Db|-------------------------------------------14-----------|
 Ab|--------------------------------------------------------|
 Eb|--------------------------------------------------------|


Important: The song above is NOT stored on the Chordie server. The original song is hosted at www.guitaretab.com. Chordie works as a search engine and provides on-the-fly formatting. Chordie does not index songs against artists'/composers' will. To remove this song please click here.

This song is displayed as text-only. Transposing and tuning is only available for chordpro-songs.
Rate #2 of 5 versions

Jango Player

Login - add to songbook

SHARE PAGE  




You need to log in to post comments