Guitar Tabs, Chords and Lyrics
Major upgrade!! After one year development the new version of Chordie is now online! Please give feedback.


Hard Times   KISS

 
 Eb|----------------------------------------------------|
 Bb|----------------------------------------------------|
 Gb|--9-9------7-6-7------7-6-7--------9-9------7-------|
 Db|--9-9------7-7-7------7-7-7--------9-9------7-------|
 Ab|--7-7------5-5-5------5-5-5--------7-7------5-------|
 Eb|-------0-0--------0-0--------0-0--------0-0----0-0--|
 Eb|----------------------------------------------------|
 Bb|----------------------------------------------------|
 Gb|--6-------2----2/4---4-4---2/4---4-4----------------|
 Db|--7-------2----2/4---4-4---2/4---4-4----------------|
 Ab|--5-------------------------------------------------|
 Eb|------0-0-------------------------------------------|

 


 


 Rhythm Fig. 2


 


 

 
 Eb|----------------------------------------------------|
 Bb|------------------------5------------------------3--|
 Gb|------------------------4------------------------2--|
 Db|--5--2-----2-----5-5-5--2---5--2-----2---5-5-5---0--|
 Ab|--5--2-----2-----5-5-5--2---5--2-----2---5-5-5------|
 Eb|--3--0-----0-----3-0-3--0---3--0-----0---3-0-3------|

 


 


 


 Rhythm Fig. 3


 


 

 
 Eb|----------------------------------------------------|
 Bb|---3-------3--------3-------3-----------------------|
 Gb|-----2--------0-------0-------0---------------------|
 Db|--0-------------------------------------------------|
 Ab|---------3-------2--------3-------------------------|
 Eb|----------------------------------------------------|

 


 


 


 Solo (Guitar 1)


 


 

 
 Eb|----------------------------------------------------|
 Bb|--15----15------15-------15------15-----------------|
 Gb|--14b------14b------14b------14b----14--------------|
 Db|----------------------------------------------------|
 Ab|----------------------------------------------------|
 Eb|----------------------------------------------------|
 Eb|----------------------------------------------------|
 Bb|----------------------------------------------------|
 Gb|-12--14-14-14-14-14-12h^14p^12-12h^13p^12-----------|
 Db|------------------------------------------12h^14p^12|
 Ab|----------------------------------------------------|
 Eb|----------------------------------------------------|
 Eb|-----------------------------15-------------15------|
 Bb|-------------------------------------15-------------|
 Gb|-12~--14b-r14p^12h^14----14b-----14b-----14b--------|
 Db|----------------------------------------------------|
 Ab|----------------------------------------------------|
 Eb|----------------------------------------------------|
 Eb|----------------------------------------------------|
 Bb|------15----------------------------------------15b~|
 Gb|--14b------14b-14b-14b-14b-14b-14b--14b-r14p^12-----|
 Db|----------------------------------------------------|
 Ab|----------------------------------------------------|
 Eb|----------------------------------------------------|Solo (Guitar 2)
 Eb|----------------------------------------------------|
 Bb|----------------------------------------------------|
 Gb|-----------------4~--6~--7~---9~--------------------|
 Db|-2~--2~--4-2-4--------------------------------------|
 Ab|----------------------------------------------------|
 Eb|----------------------------------------------------|
 Eb|----------------------------------------------------|
 Bb|--15---12h^15p^12-------12--15b~~~~---15b~~~~-------|
 Gb|-------------------14b------------------------------|
 Db|----------------------------------------------------|
 Ab|----------------------------------------------------|
 Eb|----------------------------------------------------|
 Eb|----------------------------------------------------|
 Bb|--------12h^15p^12----------------------------------|
 Gb|---14b----------------------------------------------|
 Db|----------------------------------------------------|
 Ab|----------------------------------------------------|
 Eb|----------------------------------------------------|

 


 


 


 Riff. 1


 


 

 
 Eb|----------------------------------------------------|
 Bb|--13-----13-----------------------------------------|
 Gb|--12b---------12b-r12----------10h^12p^10------10---|
 Db|-----------------------12~-----------------12-------|
 Ab|----------------------------------------------------|
 Eb|----------------------------------------------------|
 Eb|----------------------------------------------------|
 Bb|--13------------------------------------------------|
 Gb|--12b--pb12*-r12--10h^12p^10----10---12b~-----------|
 Db|-----------------------------12---------------------|
 Ab|----------------------------------------------------|
 Eb|----------------------------------------------------|
 Eb|----------------------------------------------------|
 Bb|-------------------------10-13--13b~----------------|
 Gb|--12b-r12p^10----10-12b-----------------------------|
 Db|--------------12------------------------------------|
 Ab|----------------------------------------------------|
 Eb|----------------------------------------------------|


Important: The song above is NOT stored on the Chordie server. The original song is hosted at www.guitaretab.com. Chordie works as a search engine and provides on-the-fly formatting. Chordie does not index songs against artists'/composers' will. To remove this song please click here.

This song is displayed as text-only. Transposing and tuning is only available for chordpro-songs.
Rate #1 of 3 versions

Jango Player

Login - add to songbook

SHARE PAGE  



You need to log in to post comments