Guitar Tabs, Chords and Lyrics
Major upgrade!! After one year development the new version of Chordie is now online! Please give feedback.


Getaway   KISS

 
 Eb|---------------------------------------------------|
 Bb|---------------------------------------------------|
 Gb|--7------9----7------7------9----7-----------------|
 Db|--5------5----5------5------5----5-----------------|
 Ab|---------------------------------------------------|
 Eb|---------------------------------------------------|
 Eb|---------------------------------------------------|
 Bb|---------------------------------------------------|
 Gb|---------------------------------------------------|
 Db|--7------9----7------5----5------------------------|
 Ab|--5------5----5------3----3----5-------------------|
 Eb|-------------------------------3-------------------|

 


 


 


 Rhythm Fig. 1b


 

 
 Eb|---------------------------------------------------|
 Bb|---------------------------------------------------|
 Gb|--7-----------------(7)----------------------------|
 Db|--5-----------------(5)----------------------------|
 Ab|---------------------------------------------------|
 Eb|---------------------------------------------------|
 Eb|---------------------------------------------------|
 Bb|---------------------------------------------------|
 Gb|--7--------------5----5----------------------------|
 Db|--7--------------5----5----5-----------------------|
 Ab|--5--------------3----3----5-----------------------|
 Eb|---------------------------3-----------------------|

 


 


 


 Rhythm Fig. 1c


 

 
 Eb|---------------------------------------------------|
 Bb|---------------------------------------------------|
 Gb|--12-----------------12----------------------------|
 Db|--12-----------------12----------------------------|
 Ab|--10-----------------10----------------------------|
 Eb|---------------------------------------------------|
 Eb|---------------------------------------------------|
 Bb|---------------------------------------------------|
 Gb|--14--------------12----12----12-------------------|
 Db|--12--------------10----10----12-------------------|
 Ab|------------------------------10-------------------|
 Eb|---------------------------------------------------|

 


 


 


 Rhythm Fig. 2a


 

 
 Eb|---------------------------------------------------|
 Bb|---------------------------------------------------|
 Gb|--7-------9-----10-----9--7-------9-----10-----9---|
 Db|--5----5--5--5--5---5--5--5----5--5--5--5---5--5---|
 Ab|---------------------------------------------------|
 Eb|---------------------------------------------------|
 Eb|---------------------------------------------------|
 Bb|---------------------------------------------------|
 Gb|---------------------------------------------------|
 Db|--7-----9-----10-----9--5----5---------------------|
 Ab|--5--5--5--5--5---5--5--3----3----5----------------|
 Eb|----------------------------------3----------------|

 


 


 


 Rhythm Fig. 2b


 

 
 Eb|---------------------------------------------------|
 Bb|---------------------------------------------------|
 Gb|--7-------9-----7--7--9--7-------9-----7--7--9-----|
 Db|--5----5--5--5--5--5--5--5----5--5--5--5--5--5-----|
 Ab|---------------------------------------------------|
 Eb|---------------------------------------------------|
 Eb|---------------------------------------------------|
 Bb|---------------------------------------------------|
 Gb|-----------------------5----5----------------------|
 Db|--7-----9-----7--7--9--5----5----5-----------------|
 Ab|--5--5--5--5--5--5--5--3----3----5-----------------|
 Eb|---------------------------------3-----------------|

 


 


 


 Rhythm Fig. 2c


 

 
 Eb|---------------------------------------------------|
 Bb|--12--------13------12--12--13--12-----------------|
 Gb|--12----12--12--12--12--12--12--12-----------------|
 Db|---------------------------------------------------|
 Ab|---------------------------------------------------|
 Eb|---------------------------------------------------|
 < - - - - - - - 2x - - - - - - - - - >
 Eb|---------------------------------------------------|
 Bb|--7-----8-----7--7--8------------------------------|
 Gb|--7--7--7--7--7--7--7--5----5----4-----------------|
 Db|-----------------------5----5----5-----------------|
 Ab|---------------------------------------------------|
 Eb|---------------------------------------------------|

 


 


 


 Rhythm Fig. 3a


 

 
 Eb|---------------------------------------------------|
 Bb|---------------------------------------------------|
 Gb|--2---------------------------2----2----2----------|
 Db|--2---------------------------2----2----2----------|
 Ab|--0---------------------------0----0----0----------|
 Eb|---------------------------------------------------|
 Eb|---------------------------------------------------|
 Bb|---------------------------------------------------|
 Gb|--2------------------------------------------------|
 Db|--2--------------3------------5--------------------|
 Ab|--0--------------3------------5--------------------|
 Eb|-----------------1------------3--------------------|
 Eb|---------------------------------------------------|
 Bb|---------------------------------------------------|
 Gb|--2-------------------------2----2----2------------|
 Db|--2-------------------------2----2----2------------|
 Ab|--0-------------------------0----0----0------------|
 Eb|---------------------------------------------------|
 Eb|---------------------------------------------------|
 Bb|---------------------------------------------------|
 Gb|--2--------------5----------7----------------------|
 Db|--2--------------5----------7----------------------|
 Ab|--0--------------3----------5----------------------|
 Eb|---------------------------------------------------|

 


 


 


 Rhythm Fig. 3b


 

 
 Eb|---------------------------------------------------|
 Bb|---------------------------------------------------|
 Gb|--9-------------------------9----9----9------------|
 Db|--7-------------------------7----7----7------------|
 Ab|--0-------------------------0----0----0------------|
 Eb|---------------------------------------------------|
 Eb|---------------------------------------------------|
 Bb|---------------------------------------------------|
 Gb|--9--------------10----------12--------------------|
 Db|--7--------------10----------12--------------------|
 Ab|--0--------------8-----------10--------------------|
 Eb|---------------------------------------------------|
 Eb|---------------------------------------------------|
 Bb|---------------------------------------------------|
 Gb|--9-------------------------9----9----9------------|
 Db|--7-------------------------7----7----7------------|
 Ab|--0-------------------------0----0----0------------|
 Eb|---------------------------------------------------|
 Eb|---------------------------------------------------|
 Bb|---------------------------------------------------|
 Gb|--9--------------5----------7----------------------|
 Db|--7--------------5----------7----------------------|
 Ab|--0--------------3----------5----------------------|
 Eb|---------------------------------------------------|

 


 


 


 Rhythm Fig. 3c


 

 
 Eb|---------------------------------------------------|
 Bb|---------------------------------------------------|
 Gb|---------------------------------------------------|
 Db|--14------16------14------14-----------------------|
 Ab|--12--12--12--12--12------12-----------------------|
 Eb|---------------------------------------------------|
 Eb|---------------------------------------------------|
 Bb|---------------------------------------------------|
 Gb|---------------------------------------------------|
 Db|--14------16------14------10------------12---------|
 Ab|--12--12--12--12--12------8-------------10---------|
 Eb|---------------------------------------------------|
 Eb|---------------------------------------------------|
 Bb|---------------------------------------------------|
 Gb|---------------------------------------------------|
 Db|--14------16------14------14-----------------------|
 Ab|--12--12--12--12--12------12-----------------------|
 Eb|---------------------------------------------------|
 Eb|---------------------------------------------------|
 Bb|---------------------------------------------------|
 Gb|--------------------------12------------14---------|
 Db|--14------16------14------10------------12---------|
 Ab|--12--12--12--12--12-------------------------------|
 Eb|---------------------------------------------------|

 


 


 


 Rhythm Fig. 4


 

 
 Eb|---------------------------------------------------|
 Bb|---------------------------------------------------|
 Gb|---------------------------------------------------|
 Db|--5--6--7--------------8--9--10--------------------|
 Ab|--5--6--7--------------8--9--10--------------------|
 Eb|--3--4--5--------------6--7--8---------------------|
 Eb|---------------------------------------------------|
 Bb|---------------------------------------------------|
 Gb|-----------10--------------------------------------|
 Db|--8--------10--------------------------------------|
 Ab|--8--------8---------------------------------------|
 Eb|--6------------------------------------------------|

 


 


 


 Rhythm Fig. 5a


 

 
 Eb|---------------------------------------------------|
 Bb|---------------------------------------------------|
 Gb|--3------------------------------------------------|
 Db|--3--------3---------5-----------------------------|
 Ab|--1--------3---------5-----------------------------|
 Eb|-----------1---------3-----------------------------|

 


 


 


 Rhythm Fig. 5b


 

 
 Eb|---------------------------------------------------|
 Bb|---------------------------------------------------|
 Gb|--10--------10-------------------------------------|
 Db|--8---------10-------12------14------12----14------|
 Ab|------------8--------10--10--10--10--10----10--10--|
 Eb|---------------------------------------------------|
 Eb|---------------------------------------------------|
 Bb|---------------------------------------------------|
 Gb|---------------------------------------------------|
 Db|--12--12--14--12-----------------------------------|
 Ab|--10--10--10--10-----------------------------------|
 Eb|---------------------------------------------------|

 


 


 


 Rhythm Fig. 6


 

 
 Eb|---------------------------------------------------|
 Bb|------------------------5b-5--3--------------------|
 Gb|--3---------------------5b-5--3--5--3--------------|
 Db|--3--------3---------------------------5--3--5--3--|
 Ab|--1--------3---------------------------------------|
 Eb|-----------1---------------------------------------|
 Eb|---------------------------------------------------|
 Bb|---------------------------------------------------|
 Gb|---------------------------------------------------|
 Db|------------------------------5\-------------------|
 Ab|--5---------------------------5\-------------------|
 Eb|-----3------------------------3\-------------------|

 


 


 


 Solo


 


 

 
 Eb|--------------------------------------------------------|
 Bb|------------------------------------------11------11----|
 Gb|------------------------------------------13b-----13b---|
 Db|-----/12b-----------12b~------12b~----------------------|
 Ab|--------------------------------------------------------|
 Eb|--------------------------------------------------------|
 Hold bend - - - - - - - - - >
 Eb|--------------------------------------------------------|
 Bb|--11-----11-----11------13---13-13--13---13-16-13h16p13-|
 Gb|--13b----13b----13b-----15b---------15b-----------------|
 Db|--------------------------------------------------------|
 Ab|--------------------------------------------------------|
 Eb|--------------------------------------------------------|

 


 < - 3x - >


 


 

 
 Eb|--------------------------------------------------------|
 Bb|------13h16p13----13---16b^^---16b^^---16b^^---16b^^----|
 Gb|--15-----------15---------------------------------------|
 Db|--------------------------------------------------------|
 Ab|--------------------------------------------------------|
 Eb|--------------------------------------------------------|
 Eb|-------------------------------------------11p8---------|
 Bb|--16b^^---16b^^--r16--------8h11p8-----8--------11p8----|
 Gb|-----------------------------------10-------------------|
 Db|--------------------------------------------------------|
 Ab|--------------------------------------------------------|
 Eb|--------------------------------------------------------|

 


 < - 3x - >


 


 


 

 
 Eb|--------------------------------------------------------|
 Bb|--11--11-8h11p8-----8-----------------------------------|
 Gb|----------------10-----10b-r10p8------------------------|
 Db|---------------------------------10--10b----------------|
 Ab|--------------------------------------------------------|
 Eb|--------------------------------------------------------|


Important: The song above is NOT stored on the Chordie server. The original song is hosted at www.guitaretab.com. Chordie works as a search engine and provides on-the-fly formatting. Chordie does not index songs against artists'/composers' will. To remove this song please click here.

This song is displayed as text-only. Transposing and tuning is only available for chordpro-songs.
Rate #1 of 3 versions

Jango Player

Login - add to songbook

SHARE PAGE  



You need to log in to post comments