Guitar Tabs, Chords and Lyrics
Major upgrade!! After one year development the new version of Chordie is now online! Please give feedback.


Only You   KISS

 
 E|-------(1)------------------------------------------|
 B|--------3----------------------3--------------------|
 G|--2--2--2----2--2--2--2--3--3--3----3--3--3--3------|
 D|--0--0--0----0--0--0--0--0--0--0----0--0--0--0------|
 A|----------------------------------------------------|
 E|----------------------------------------------------|
 P.M. P.M. - - - - - -> P.M. - - ->
 E|--------3-------------------------------------------|
 B|--------3----------------------3--------------------|
 G|--0--0--0----0--0--0--0--2--2--2----2--2--2--0------|
 D|--0--0--0----0--0--0--0--0--0--0----0--0--0--0------|
 A|----------------------------------------------------|
 E|----------------------------------------------------|
 P.M. P.M. - - - - - -> P.M. - - ->
 E|--------3----------------------3--------------------|
 B|--------3----------------------3--------------------|
 G|--2--2--2----2--2--2--2--0--0--0----0--0--0---------|
 D|--3--3--3----3--3--3--3--2--2--2----2--2--2--0------|
 A|---------------------------------------------0------|
 E|----------------------------------------------------|
 P.M. P.M. - - - - - -> P.M. - - ->

 


 


 [End] [1]  


 

 
 E|--------2----------------------3--------------------|
 B|--------3----------------------3--------------------|
 G|--2--2--2----2--2--2--2--2--2--2----2--2--2--0------|
 D|--0--0--0----0--0--0--0--0--0--0----0--0--0--0------|
 A|----------------------------------------------------|
 E|----------------------------------------------------|
 P.M. P.M. - - - - - -> P.M. - - ->

 


 


 [End] [2]  


 

 
 E|--2-------------------------------------------------|
 B|--3-------------------------------------------------|
 G|--2-------------------------------------------------|
 D|--0-------------------------------------------------|
 A|----------------------------------------------------|
 E|----------------------------------------------------|

 


 


 


 Rhythm Fig. 2


 

 
 E|--1-------------------------------------------------|
 B|--3----------------------3--------------------------|
 G|--2----2--2--2--2--2--2--3----3--3--3--3--3--3------|
 D|--0----0--0--0--0--0--0--0----0--0--0--0--0--0------|
 A|----------------------------------------------------|
 E|----------------------------------------------------|
 P.M. - - - - - > P.M. - - - - - >
 E|--3----------------------2--------------------------|
 B|--3----------------------3--------------------------|
 G|--0----0--0--0--0--0--0--2----2--2--2--2--2--2------|
 D|--0----0--0--0--0--0--0--0----0--0--0--0--0--0------|
 A|----------------------------------------------------|
 E|----------------------------------------------------|
 P.M. - - - - - > P.M. - - - - - >
 E|--3----------------------3--------------------------|
 B|--3----------------------3--------------------------|
 G|--2----2--2--2--2--2--2--0----0--0--0--0--0--0------|
 D|--3----3--3--3--3--3--3--2----2--2--2--2--2--0------|
 A|----------------------------------------------------|
 E|----------------------------------------------------|
 P.M. - - - - - > P.M. - - - - - >

 


 


 [End] [1]  


 

 
 E|--2----------------------3--------------------------|
 B|--3----------------------3--------------------------|
 G|--2----2--2--2--2--2--2--2----2--2--2--2--2--0------|
 D|--0----0--0--0--0--0--0--0----0--0--0--0--0--0------|
 A|----------------------------------------------------|
 E|----------------------------------------------------|
 P.M. - - - - - > P.M. - - - - - >

 


 


 [End] [2]  


 

 
 E|--2-------------------------------------------------|
 B|--3-------------------------------------------------|
 G|--2-------------------------------------------------|
 D|--0-------------------------------------------------|
 A|----------------------------------------------------|
 E|----------------------------------------------------|

 


 


 


 Rhythm Fig. 3


 

 
 E|----------------------------------------------------|
 B|----------------------------------------------------|
 G|-------5--7----5--7---------5--7----5--7------------|
 D|-------7--7----7--7---------7--7----7--7------------|
 A|--0--------------------0----------------------------|
 E|----------------------------------------------------|
 E|----------------------------------------------------|
 B|---------------------------------8--8---------------|
 G|-----5--7----5--7-(5)-7----------7--7---------------|
 D|-----7--7----7--7-(7)-8----------8--8---------------|
 A|--0-------------------------------------------------|
 E|----------------------------------------------------|

 


 


 


 Rhythm Fig. 4


 

 
 E|----------------------------------------------------|
 B|-----3-------------------3---------2----------------|
 G|-----2-------------------2---------2----------------|
 D|-----2-------------------2---------2----------------|
 A|--0-------------------0---------0-------------------|
 E|----------------------------------------------------|

 


 


 


 [End] [1]  


 

 
 E|-----3-------------------3---------2----------------|
 B|-----3-------------------3---------3----------------|
 G|-----0-------------------0---------2----------------|
 D|--------------------------------0-------------------|
 A|--3-------------------3-----------------------------|
 E|----------------------------------------------------|

 


 


 


 [End] [2]  


 

 
 E|--3--------------------3----2-----------------------|
 B|--3--------------------3----3-----------------------|
 G|--0--------------------0----2-----------------------|
 D|-----------------------0----0-----------------------|
 A|--3-------------------------------------------------|
 E|----------------------------------------------------|

 


 


 


 Rhythm Fig. 5a (All bends are 1/4-step)


 

 
 E|----------------------------------------------------|
 B|----------------------------------------------------|
 G|----------------------------------------------------|
 D|----------------------------------------------------|
 A|----------------------------------------------------|
 E|--0----0--5b-0--3b-0----0--5b-0--3b-0----0--3b-0----|

 


 


 


 [End] [1]  


 

 
 E|----------------------------------------------------|
 B|------------------------8--7------7--5--------------|
 G|------------------------7--7------7--6--------------|
 D|------------------------9--7------7--7--------------|
 A|----------------------------------------------------|
 E|----0--5b-0--3b-0-----------------------------------|

 


 


 


 


 [End] [2]  


 

 
 E|----------------------------------------------------|
 B|------------------------8--7------------------------|
 G|------------------------7--7------------------------|
 D|------------------------9--7------------------------|
 A|----------------------------------------------------|
 E|----0--5b-0--3b-0-----------------------------------|

 


 


 


 Rhythm Fig. 5b (All bends are 1/4-step)


 

 
 E|----------------------------------------------------|
 B|----------------------------------------------------|
 G|----------------------------------------------------|
 D|----------------------------------------------------|
 A|----------------------------------------------------|
 E|--0----0--5b-0--3b-0----0--5b-0--3b-0----0--3b-0----|

 


 


 


 [End] [1]  


 

 
 E|-------------------------3--------------------------|
 B|-------------------------3--3------3----------------|
 G|-------------------------0--2------2--2-------------|
 D|-------------------------0--0------0--2-------------|
 A|--------------------------------------0-------------|
 E|----0--5b-0--3b-0--------3--------------------------|

 


 


 


 [End] [2]  


 

 
 E|-------------------------3--------------------------|
 B|-------------------------3--3-----------------------|
 G|-------------------------0--2-----------------------|
 D|-------------------------0--0-----------------------|
 A|----------------------------------------------------|
 E|----0--5b-0--3b-0--------3--------------------------|

 


 


 


 Rhythm Fig. 6


 

 
 E|--3-------------------------------------------------|
 B|--3-------------------------------------------------|
 G|--0-------------------------------------------------|
 D|--0-------------------------------------------------|
 A|----------------------------------------------------|
 E|--3-------------------------------------------------|
 E|--2-------------------------------------------------|
 B|--3-------------------------------------------------|
 G|--2-------------------------------------------------|
 D|--0-------------------------------------------------|
 A|----------------------------------------------------|
 E|----------------------------------------------------|
 E|--3-------------------------------------------------|
 B|--3-------------------------------------------------|
 G|--0-------------------------------------------------|
 D|--0-------------------------------------------------|
 A|----------------------------------------------------|
 E|--3-------------------------------------------------|
 E|----------------------------------------------------|
 B|--4--4--4--4--4--4--4--4--4-------------------------|
 G|--4--4--4--4--4--4--4--4--4-------------------------|
 D|--4--4--4--4--4--4--4--4--4-------------------------|
 A|--2--2--2--2--2--2--2--2--2-------------------------|
 E|----------------------------------------------------|

 


 


 


 Rhythm Fig. 7 (Let ring throughout)


 

 
 E|----------------------------------------------------|
 B|----------------------------------------------------|
 G|----------------------------------------------------|
 D|----------------------------------------------------|
 A|----------------------------------------------------|
 E|--0-------------------------------------------------|
 E|----------------------------------------------------|
 B|--0-------------------0-----0----0------------------|
 G|--12------------------11----9----7------------------|
 D|----------------------------------------------------|
 A|----------------------------------------------------|
 E|----------------------------------------------------|
 E|-----------0----------------------------------------|
 B|--0--------0----------------------------------------|
 G|--7-------------------------------------------------|
 D|----------------------------------------------------|
 A|----------------------------------------------------|
 E|--------------------0-------------------------------|

 


 Let ring - - - >


 


 

 
 E|----------------------------------------------------|
 B|--0-------------------0-----0----0------------------|
 G|--12------------------11----9----7------------------|
 D|----------------------------------------------------|
 A|----------------------------------------------------|
 E|----------------------------------------------------|

 


 


 


 Rhythm Fig. 8 (All bends are 1/4-step)


 


 

 
 E|----------------------------------------------------|
 B|----------------------------------------------------|
 G|----------------------------------------------------|
 D|----------------------------------------------------|
 A|----------------------------------------------------|
 E|--0----0--5b-0--3b-0----0--5b-0--3b-0----0--3b-0----|
 E|----------------------------------------------------|
 B|------------------------0---------------------------|
 G|------------------------12--------------------------|
 D|----------------------------------------------------|
 A|----------------------------------------------------|
 E|----0--5b-0--3b-0-----------------------------------|
 E|----------------------------------------------------|
 B|--0-----0----0--------------------------------------|
 G|--11----9----7--------------------------------------|
 D|----------------------------------------------------|
 A|----------------------------------------------------|
 E|----------------------------------------------------|

 


 


 


 Riff 1


 


 

 
 E|----------------------------------------------------|
 B|--------------5-------------------------------------|
 G|--4---4---4-----4-----------------------------------|
 D|----------------------------------------------------|
 A|----------------------------------------------------|
 E|----------------------------------------------------|

 


 | |


 | |


 | |


 

 
 E|---------------12-----------------------------------|
 B|--12--12--12-----12---------------------------------|
 G|----------------------------------------------------|
 D|----------------------------------------------------|
 A|----------------------------------------------------|
 E|----------------------------------------------------|


Important: The song above is NOT stored on the Chordie server. The original song is hosted at www.guitaretab.com. Chordie works as a search engine and provides on-the-fly formatting. Chordie does not index songs against artists'/composers' will. To remove this song please click here.

This song is displayed as text-only. Transposing and tuning is only available for chordpro-songs.
Rate #2 of 3 versions

Jango Player

Login - add to songbook

SHARE PAGE  




You need to log in to post comments