Guitar Tabs, Chords and Lyrics
Major upgrade!! After one year development the new version of Chordie is now online! Please give feedback.


Under the Rose   KISS

 
 E|------0-----0-----0-----0-----0-----0-----0-----0---|
 B|----6-----6-----6-----6-----6-----6-----6-----6-----|
 G|--5-----5-----5-----5-----5-----5-----5-----5-------|
 D|----------------------------------------------------|
 A|----------------------------------------------------|
 E|----------------------------------------------------|

 


 


 


 Rhythm Fig. 2 (acoustic 12-string, let ring)


 


 

 
 E|------0-----0-----0-----0-----0-----0-----3-----3---|
 B|----3-----3-----6-----6-----1-----1-----3-----3-----|
 G|--2-----2-----5-----5-----0-----0-----0-----0-------|
 D|----------------------------------------------------|
 A|----------------------------------------------------|
 E|----------------------------------------------------|
 E|------0-----0-----0-----------0-----0-----0-----0---|
 B|----3-----3-----3---3-------3-----3-----3-----3-----|
 G|--2-----2-----2-------0h2-2-----2-----2-----2-------|
 D|----------------------------------------------------|
 A|----------------------------------------------------|
 E|----------------------------------------------------|
 E|------3-----3-----3-----3-----3-----3-----3-----3---|
 B|----1-----1-----1-----1-----3-----3-----3-----3-----|
 G|--2-----2-----0-----0-----0-----0-----0-----0-------|
 D|----------------------------------------------------|
 A|----------------------------------------------------|
 E|----------------------------------------------------|

 


 


 Rhythm Fig. 3 (acoustic 12-string, let ring)


 

 
 E|------0-----0-----0-----0-0-------------------------|
 B|----6-----6-----6-----6---6-------------------------|
 G|--5-----5-----5-----5-----5-------------------------|
 D|----------------------------------------------------|
 A|----------------------------------------------------|
 E|----------------------------------------------------|

 


 


 


 Rhythm Fig. 4 (acoustic 12-string, let ring)


 

 
 E|------0-----0-----0-----0-----0-----0-----0-----0---|
 B|----3-----3-----3-----3-----6-----6-----6-----6-----|
 G|--2-----2-----2-----2-----5-----5-----5-----5-------|
 D|----------------------------------------------------|
 A|----------------------------------------------------|
 E|----------------------------------------------------|
 E|----3-----3-----3-----3-----3-----3-----3-----3-----|
 B|------3-----3-----3-----3-----3-----3-----3-----3---|
 G|--0-----0-----0-----0-----0-----0-----0-----0-------|
 D|----------------------------------------------------|
 A|----------------------------------------------------|
 E|----------------------------------------------------|
 E|------0-----0-----0-----0-----0-----0-----0-----0---|
 B|----3-----3-----3-----3-----6-----6-----6-----6-----|
 G|--2-----2-----2-----2-----5-----5-----5-----5-------|
 D|----------------------------------------------------|
 A|----------------------------------------------------|
 E|----------------------------------------------------|
 E|----3-----3-----3-----3-----3-----3-----3-----3-----|
 B|------3-----3-----3-----3-----3-----3-----3-----3---|
 G|--0-----0-----0-----0-----0-----0-----0-----0-------|
 D|----------------------------------------------------|
 A|----------------------------------------------------|
 E|----------------------------------------------------|

 


 


 


 Rhythm Fig. 5 (acoustic 12-string)


 

 
 E|----------0--0----------------------0--0------------|
 B|----------3--3----------------------3--3------------|
 G|----------2--2----------------------2--2------------|
 D|----------0--0----------------------0--0------------|
 A|----------------------------------------------------|
 E|----------------------------------------------------|

 


 


 


 Rhythm Fig. 6


 

 
 E|----------------------------------------------------|
 B|----------------------------------------------------|
 G|----------------------------------------------------|
 D|----------------------------------------------------|
 A|--5-----5-------------------------------------0--3--|
 E|--------------0-----1-----3-------------------------|
 E|----------------------------------------------------|
 B|----------------------------------------------------|
 G|----------------------------------------------------|
 D|----------------------------------------------------|
 A|--5-----5-----------------------0-----1------3------|
 E|--------------0-----1-----3-------------------------|

 


 


 


 Rhythm Fig. 7


 

 
 E|----------------------------------------------------|
 B|------------------3--3------------------------------|
 G|------------------2--2------------------------------|
 D|--3-2-0------2-0--0--0-----------------------2------|
 A|--------3---------------3-2-0----------0-2-3--------|
 E|------------------------------3----0-3--------------|
 E|----------------------------------------------------|
 B|------------------3--3------------------------------|
 G|------------------2--2------------------------------|
 D|--3-2-0------2-0--0--0------------------------------|
 A|--------3---------------3-2-0------3-2-0---0-2-3----|
 E|------------------------------3----------3----------|
 E|----------------------------------------------------|
 B|------------------3--3------------------------------|
 G|------------------2--2------------------------------|
 D|--3-2-0------2-0--0--0-----------------------2------|
 A|--------3---------------3-2-0----------0-2-3--------|
 E|------------------------------3----0-3--------------|
 E|----------------------------------------------------|
 B|------------------3--3-------------------3----------|
 G|------------------2--2-------------------0----------|
 D|--3-2-0------2-0--0--0-------------------0----------|
 A|--------3---------------3-2-0------3-2-0-x----------|
 E|------------------------------3----------3----------|

 


 


 


 Rhythm Fig. 8


 


 

 
 E|----------------------------------------------------|
 B|----------------------------------------------------|
 G|----------------------------------------------------|
 D|----------------------------------------------------|
 A|--5-----5-----------------------0-----1------3------|
 E|--------------0-----1-----3-------------------------|
 < - - - - - - - - - - - 2x - - - - - - - - - - - >

 


 


 


 Riff 1 (12-string acoustic)


 


 

 
 E|--3-------------------------------------------------|
 B|--3-------------------------------------------------|
 G|--0-------------------------------------------------|
 D|--0-------------------------------------------------|
 A|--x-------------------------------------------------|
 E|--3-------------------------------------------------|

 


 


 


 Solo


 


 

 
 E|---------------------------------------------------------------------|
 B|--------------------------------------13b-----10---------------------|
 G|--12b------r12---12p10---------------------------12-10----12b-r12p10-|
 D|-----------------------12-12-12-12-12------------------12------------|
 A|---------------------------------------------------------------------|
 E|---------------------------------------------------------------------|
 E|---------------------------------------------------------------------|
 B|---------------------------------------------------------------------|
 G|---------------------------------------------------------------------|
 D|--12~----------------------------------------------------------------|
 A|------------10\8---5\------------------------------------------------|
 E|----------------------------10--12--13------12------10\8-----8\7-----|
 E|---------------------------------------------------------------------|
 B|----------------------------------------------6------8b-8b-8b-8b-8b--|
 G|-------------------------------5----------5h7------------------------|
 D|---------------------------5h7--------5h7----------------------------|
 A|---------------------------------------------------------------------|
 E|--7\5-----------5/17\------------------------------------------------|

 


 [Add delay] 


 


 

 
 E|---------------------------------------------------------------------|
 B|--8b----------r8-----------------13b-----13b-----13b-----------------|
 G|-----------------------10-12-10----------------------------12--------|
 D|---------------------------------------------------------------12----|
 A|---------------------------------------------------------------------|
 E|---------------------------------------------------------------------|
 E|-----------------------------------10h13-----------------------------|
 B|------------------------10h13------------------13b-------------------|
 G|--------------10h12--------------------------------------------------|
 D|---10h12-------------------------------------------------------------|
 A|---------------------------------------------------------------------|
 E|---------------------------------------------------------------------|
 < - 3x - > < - 3x - > < - 3x - > < - 3x - >


Important: The song above is NOT stored on the Chordie server. The original song is hosted at www.guitaretab.com. Chordie works as a search engine and provides on-the-fly formatting. Chordie does not index songs against artists'/composers' will. To remove this song please click here.

This song is displayed as text-only. Transposing and tuning is only available for chordpro-songs.
Rate #0 of 3 versions

Login - add to songbook

SHARE PAGE  




You need to log in to post comments