Guitar Tabs, Chords and Lyrics
Major upgrade!! After one year development the new version of Chordie is now online! Please give feedback.


Dark Light   KISS

 
 E|---------------------------------------------------------|
 B|---------------------------------------------------------|
 G|---------------------------------------------------------|
 D|---------------------------------------------------------|
 A|--4--5----------------4--5--4--5-------------------------|
 E|---------------------------------------------------------|
 Light P.M. - - - - - - - - - - >
 E|---------------------------------------------------------|
 B|---------------------------------------------------------|
 G|---------------------------------------------------------|
 D|---------------------------------------------------------|
 A|--4--5--4--5--4--5--4--5---------------------------------|
 E|---------------------------------------------------------|

 


 Light P.M. - - - - - >


 


 Rhythm Fig. 2a


 

 
 E|---------------------------------------------------------|
 B|---------------------------------------------------------|
 G|---------------------------------------------------------|
 D|---------------------------------------------------------|
 A|--4--5--4--5--4--5--4--5---------------------------------|
 E|---------------------------------------------------------|
 Light P.M. - - - - - - >

 


 


 Rhythm Fig. 2b


 

 
 E|---------------------------------------------------------|
 B|---------------------------------------------------------|
 G|--6--7--6--7--6--7--6--7---------------------------------|
 D|--6--7--6--7--6--7--6--7---------------------------------|
 A|---------------------------------------------------------|
 E|---------------------------------------------------------|
 Light P.M. - - - - - - >

 


 


 Rhythm Fig. 3


 

 
 E|------------------------------3-3------------------------|
 B|------------------------------3-3------------------------|
 G|--7/9--10--9--7--9--10--9--7--0-0-------------------7/9--|
 D|--7/9--10--9--7--9--10--9--7--0-0-------------------7/9--|
 A|--5/7--8---7--5--7--8---7--5------------------------5/7--|
 E|------------------------------3-3------------------------|
 E|-------------------------3-3-----------------------------|
 B|-------------------------3-3-----------------------------|
 G|--10--9--7--9--12--9--7--0-0------------------------7/9--|
 D|--10--9--7--9--12--9--7--0-0------------------------7/9--|
 A|--8---7--5--7--10--7--5-----------------------------5/7--|
 E|-------------------------3-3-----------------------------|
 E|------------3-3--------------------3-------------3-------|
 B|------------3-3--------------------3-------------3-------|
 G|--10--9--7--0-0----------------0---0-------------0-------|
 D|--10--9--7--0-0------5/7--8--7-0---0---5/7--8--7-0-------|
 A|--8---7--5-----------5/7--8--7---------5/7--8--7---------|
 E|------------3-3------3/5--6--5-3-------3/5--6--5-3-------|

 


 


 


 Rhythm Fig. 4


 


 

 
 E|-------------------------------3-------------------------|
 B|--5----------------------------3-------------------------|
 G|--5------------------------0---0-------------------------|
 D|--5------5-------5/7--8--7-0---0-------------------------|
 A|--3------5-------5/7--8--7-------------------------------|
 E|---------3-------3/5--6--5-3-----------------------------|
 < - - - - - - - - - 2x - - - - - - - - - - - >
 E|-------------------------------3-------------3-----------|
 B|--5----------------------------3-------------3-----------|
 G|--5------------------------0---0-------------0-----------|
 D|--5------5-------5/7--8--7-0---0---5/7--8--7-0-----------|
 A|--3------5-------5/7--8--7---------5/7--8--7-------------|
 E|---------3-------3/5--6--5-3-------3/5--6--5-3-----------|

 


 


 


 Rhythm Fig. 5


 

 
 E|--3------3------------3--3--3--3--3----------------------|
 B|--3------5------------3--5--3--5--6----------------------|
 G|--5------5------------5--5--5--5--5----------------------|
 D|--5------5------------5--5--5--5--5----------------------|
 A|---------------------------------------------------------|
 E|---------------------------------------------------------|
 < - - - - - - - - 3x - - - - - - - - >
 E|--3------3------------3--2--0--2-------------------------|
 B|--3------5------------3--3--3--3-------------------------|
 G|--5------5------------0--2--2--2-------------------------|
 D|--5------5------------0--0--0--0-------------------------|
 A|---------------------------------------------------------|
 E|---------------------------------------------------------|

 


 


 


 Solo


 


 

 
 E|-------------------------------------------------------------------|
 B|--15b-15-15-15-15-15-15-15-15-15-15-15-15-15-15-15-15-15-15-15-r15-|
 G|-------------------------------------------------------------------|
 D|-------------------------------------------------------------------|
 A|-------------------------------------------------------------------|
 E|-------------------------------------------------------------------|
 Gradual bend and release - - - - - - - - - - - - - - - - - - - >
 E|-------------------------------------------------------------------|
 B|-------------------------------------------------------------------|
 G|--12~-----12--14--14b-r14p12--14--12~------------------------------|
 D|------------------------------------------14-12-14-----------------|
 A|-------------------------------------------------------------------|
 E|-------------------------------------------------------------------|
 E|-------------------------------------------------------------------|
 B|-------------------------------------------------------------------|
 G|--12h14p12-11h12p11-9h11p9-7h9p7-6h7p6-4h6h4\2----4p2p0h4p2p0------|
 D|-------------------------------------------------------------------|
 A|-------------------------------------------------------------------|
 E|-------------------------------------------------------------------|

 


 < - - 4x - - >


 


 

 
 E|------------------------------------------------------------0------|
 B|------------------------------------------------------------0------|
 G|--4p2p0h4p2p0------------------------------------------------------|
 D|--------------4p2p0h4p2p0------------------------------------------|
 A|--------------------------4p2p0h4p2p0------------------------------|
 E|--------------------------------------4p2p0h4p2p0-3b^--p0----------|

 


 Let ring


 


 

 
 E|-------------------------------------------------------------------|
 B|-------------------------------------------------------------------|
 G|--12-12--12--12--12-12----12-12~----------------\------------------|
 D|--12-12--12--12--12-12----12-12~----------------\-----------2------|
 A|------------------------------------------------------------2------|
 E|------------------------------------------------------------0------|

 


 Slight vib. Slow slide


 


 

 
 E|---------------0-----12--14-15-14-12-------------------------------|
 B|-(12)-----\---(0)--------------------15-14-12----------------------|
 G|--12------\-x---------------------------------15--14--12~----------|
 D|--12------\-x------------------------------------------------------|
 A|-------------------------------------------------------------------|
 E|-------------------------------------------------------------------|
 E|--------------------------------------------------15-12h15p12------|
 B|--15----------14----------15----------14----------------------15---|
 G|------14--12------14--12------14--12------14--12-------------------|
 D|-------------------------------------------------------------------|
 A|-------------------------------------------------------------------|
 E|-------------------------------------------------------------------|
 E|-------------------------------------------------------------------|
 B|--12h15h12----12---------------------------------------------------|
 G|-----------14----14p12h14p12---12----------------------------------|
 D|----------------------------14---14-12h14p12--12-------------------|
 A|--------------------------------------------14--14p12\10-----------|
 E|-------------------------------------------------------------------|
 E|-------------------------------------------------------------12----|
 B|---------------------------------------------12--12-15p12h15-------|
 G|-----------------------------12--12-14p12h14-----------------------|
 D|-----------------12-14p12h14---------------------------------------|
 A|--10h12p10-12/14---------------------------------------------------|
 E|-------------------------------------------------------------------|
 E|--12-15p14p12-15p14p12--15-15p14p12-15-15-15-15-15-15-15p14p12-----|
 B|-------------------------------------------------------------------|
 G|-------------------------------------------------------------------|
 D|-------------------------------------------------------------------|
 A|-------------------------------------------------------------------|
 E|-------------------------------------------------------------------|
 < - - - 2x - - - > < - 8x - > < - - - - - 3x - - - - - - >
 E|--15-15-15p14p12-15-15-15-15-15p14p12-15-15-1514p12-15b------------|
 B|-------------------------------------------------------------------|
 G|-------------------------------------------------------------------|
 D|-------------------------------------------------------------------|
 A|-------------------------------------------------------------------|
 E|-------------------------------------------------------------------|
 < - - - - 7x - - - >
 E|--12h15p12---------------------------------------------------------|
 B|-----------15p12----12---------------------------------------------|
 G|-----------------14----14----14b~----------------------------------|
 D|-------------------------------------------------------------------|
 A|-------------------------------------------------------------------|
 E|-------------------------------------------------------------------|


Important: The song above is NOT stored on the Chordie server. The original song is hosted at www.guitaretab.com. Chordie works as a search engine and provides on-the-fly formatting. Chordie does not index songs against artists'/composers' will. To remove this song please click here.

This song is displayed as text-only. Transposing and tuning is only available for chordpro-songs.
Rate #1 of 3 versions

Jango Player

Login - add to songbook

SHARE PAGE  




You need to log in to post comments