Guitar Tabs, Chords and Lyrics
Server problems seems to be fixed. Chordie has been experiencing problems with songs disappearing. These issues now seems to be fixed, but still verifying the fix. If you find anything strange, please email admin@chordie.com.


Black Diamond  KISS

Black Dimond
Words and Music by
Paul Stanley
Tempo=54
Prelude:
O[Am]ut on the street for a living. B[F]ut she's only beg[G]un[Am]._ [F]Got you under their
t[F]humb
Tempo=132
[A5] [F5] [G] [C] 
Hit it!
 
 |----------------|-------------------|---|-------------------|
 |----------------|-------------------|---|---0-1-0-1-0-1-0---|
 |---2------2-----|-------------------|---|---0-0-0-0-0-0-0---|
 |---2--------2---|-------------------|---|---0-2-0-2-0-2-0---|
 |---0----------0-|------0---3-2-0----|-3-|-------------------|
 |----------------|-0-3-------------3-|-1-|-------------------|

Verse:
1.3. [A5]Out on the street for a living, [F]but she's only begun.[G] [C]
2. Darkness will fall on the city. they seem to follow you too.
[A5]Your day is so in madness. [F]Got you under their t[Am7]humb[G].[A5]
And though you don't ask for pity. And through the night you can't lose
Chorus:
[F5] [G5] Black Diamond.[A5] [C5] [D5] [C]
____________________________________________
|1. |
G5 A5 G5 | F5 G5 A5 |
Black Diamond.
_______
|2. Tempo=54
|F5 A5 C5 D5 C5 G5 A5 Am
Black Diamond. Out on the stret for a living
Tempo=132
[F] But she's only begun[G]. [Am] G[F]ot you under their th[Am]umb. Hit it!
Outro: Repeat as needed
[A5] [F5] [G] [C] 
 
 |----------------|-------------------|---|-------------------|
 |----------------|-------------------|---|---0-1-0-1-0-1-0---|
 |---2------2-----|-------------------|---|---0-0-0-0-0-0-0---|
 |---2--------2---|-------------------|---|---0-2-0-2-0-2-0---|
 |---0----------0-|------0---3-2-0----|-3-|-------------------|
 |----------------|-0-3-------------3-|-1-|-------------------|


Important: The song above is NOT stored on the Chordie server. The original song is hosted at www.guitaretab.com. Chordie works as a search engine and provides on-the-fly formatting. Chordie does not index songs against artists'/composers' will. To remove this song please click here.

Text color:
Chord color:
Chord grids: 
Font size:    
Page size: 

A5 Am Am7 C C5 D5 F F5 G G5
Rate #1 of 9 versions

Jango Player

Login - add to songbook

SHARE PAGE  




You need to log in to post comments