Guitar Tabs, Chords and Lyrics
Server problems seems to be fixed. Chordie has been experiencing problems with songs disappearing. These issues now seems to be fixed, but still verifying the fix. If you find anything strange, please email admin@chordie.com.


Forever  KISS

[D9] [C9] [G5] [D9]  
 
 E|--------------------------------0---------|
 B|-----3--------3--------3------2---3-------|
 G|---2---2--------0-----------3-------------|
 D|-0----------0---------0---0---------------|
 A|----------3-------------------------------|
 E|-------------------5----------------------|

[D9] [C9]  
 
 E|-3-2-3-2---0----3-------------------------|
 B|-------------3--3-------------------------|
 G|---------2------0-------------------------| (2x)
 D|----------------2-------------------------|
 A|----------------3-------------------------|
 E|------------------------------------------|

[D9] I gotta t[C9]ell you what I'm f[G5]eelin' ins[D9]ide, I could lie to myself, but it's tr[C9]ue
[D9] There's no deny[C9]ing when I lo[G5]ok in your [D9]eyes, girl I'm out of my head over y[C9]ou
[Am7] [G/B] [C9] [D9]  
 
 E|------------------------------0-----------|
 B|-----1--------3-------3-----3---3---------|
 G|---0---0----0---0---0-----2---------------|
 D|-2--------0-------0-----0-----------------|
 A|-0--------2-------3-----------------------|
 E|------------------------------------------|

[Am7] [G/B] [C9] [D9]  
 
 E|-------------0---------------0------------|
 B|-----1-----3---3-----3-----3---3----------|
 G|---0-----0---------0-----2----------------|
 D|-2-----0---------0-----0------------------|
 A|-0-----2---------3------------------------|
 E|------------------------------------------|

[Am7] I lived so l[G/B]ong believin' [C9]all love is bl[D9]ind
But [Am7]everything ab[G/B]out you is t[C9]ellin' me this t[D9]ime
(Chorus)
It's for[G]ev[D]er, [Em] this time I[C] know and there's no d[Am]oubt in my m[D]ind
For[G]ev[D]er,[G] until my l[Am]ife is through,[G/B] girl I'll b[C9]e lovin' you for[D]ev[C9]er
[D9] [C9] [G5] [D9]  
 
 E|--------------------------------0---------|
 B|-----3--------3--------3------2---3-------|
 G|---2---2--------0-----------3-------------|
 D|-0----------0---------0---0---------------|
 A|----------3-------------------------------|
 E|-------------------5----------------------|

[D9] [C9]  
 
 E|-3-2-3-2---0----3-------------------------|
 B|-------------3--3-------------------------|
 G|---------2------0-------------------------| (2x)
 D|----------------2-------------------------|
 A|----------------3-------------------------|
 E|------------------------------------------|

[D9] I hear the [C9]echo of a pr[G5]omise I m[D9]ade
When you're strong you can stand on your [C9]own
[D9] But those words grow d[C9]istant as I l[G5]ook at your f[D9]ace
No, I don't wanna go it al[C9]one
[Am7] [G/B] [C9] [D9]  
 
 E|------------------------------0-----------|
 B|-----1--------3-------3-----3---3---------|
 G|---0---0----0---0---0-----2---------------|
 D|-2--------0-------0-----0-----------------|
 A|-0--------2-------3-----------------------|
 E|------------------------------------------|

[Am7] [G/B] [C9] [D9]  
 
 E|-------------0---------------0------------|
 B|-----1-----3---3-----3-----3---3----------|
 G|---0-----0---------0-----2----------------|
 D|-2-----0---------0-----0------------------|
 A|-0-----2---------3------------------------|
 E|------------------------------------------|

[Am7] I never th[G/B]ought I'd lay my h[C9]eart on the l[D9]ine
But ev[Am7]erything ab[G/B]out you is t[C9]ellin' me this t[D9]ime
[G] I[D]t's [Em]forever, th[C]is time I know and the[Am]re's no doub[D]t in my mind
For[G]ev[D]er,[G] until my l[Am]ife is through,[G/B] girl I'll b[C9]e lovin' you for[D]ev[C9]er
Solo base: D9 C9 G D9 C9 (2x)
Solo:
(part 1)
 
 E|--------10--10-10---10---10---8---7h8p7------------|
 B|----------------------------------------10-8-7-----|
 G|-----7------------7----7----7---7--------------9-7-|
 D|---0-----------------------------------------------|
 A|---------------------------------------------------|
 E|-0-------------------------------------------------|

(part 2)
 
 E|------------------------------------------|
 B|---7-7h8---7-8----------------------------|
 G|-9-------9-----9-----------------------5--|
 D|---------------------------------------5--|
 A|-----------------10-9-10-7-9-5/7-7\3-3-5--|
 E|---------------------------------------5--|

(part 3)
 
 E|--------------------------------7---------|
 B|-----7-8-10~-8-7-7h8p7---7-8-10---10------|
 G|-----------------------9------------------|
 D|---0--------------------------------------|
 A|------------------------------------------|
 E|-0----------------------------------------|
 E|------------------------------------------|
 B|-7-7h8p7---7------------------------------|
 G|---------9---7/9\7------------------------|
 D|-------------------9-7--------------------|
 A|-----------------------9\7p5-7~-----------|
 E|------------------------------------------|

(part 4)
 
 E|----------12-14-15-14-12-14-15-14-12------|
 B|-------12---------------------------------|
 G|----12------------------------------------|
 D|-14---------------------------------------|
 A|------------------------------------------|
 E|------------------------------------------|
 E|----15-------14------12-----10------------|
 B|----15-------15------12-----10------------|
 G|-12----12-11----11-9----9-7----9\7~-------|
 D|------------------------------------------|
 A|------------------------------------------|
 E|------------------------------------------|

Ohh,[Am7] I see my f[G/B]uture when I l[C9]ook in your [D9]eyes
[Am7] It took your l[G/B]ove to make my h[C9]eart come al[D9]ive
[Am7] 'Cause I lived my l[G/B]ife believin' [C9]all love is bl[D9]ind
But ev[Am7]erything ab[G/B]out you is t[C9]ellin' me this t[D9]ime
[G] I[D]t's [Em]forever, th[C]is time I know and the[Am]re's no doub[D]t in my mind
For[G]ev[D]er,[G] until my l[Am]ife is through,[G/B] girl I'll b[C9]e lovin' you for[D]ev[C9]er
Am: x02310
Am7: x02010
C: x32010
C9: x32033
D: xx0232
D9: xx0120
Em: 022000
G: 032033
G/B: x20033
G5: 355xxx

Important: The song above is NOT stored on the Chordie server. The original song is hosted at www.guitaretab.com. Chordie works as a search engine and provides on-the-fly formatting. Chordie does not index songs against artists'/composers' will. To remove this song please click here.

Text color:
Chord color:
Chord grids: 
Font size:    
Page size: 

Am Am7 C C9 D D9 Em G G/B G5
Rate #1 of 13 versions

Jango Player

Login - add to songbook

SHARE PAGE  



You need to log in to post comments