Guitar Tabs, Chords and Lyrics
Server problems seems to be fixed. Chordie has been experiencing problems with songs disappearing. These issues now seems to be fixed, but still verifying the fix. If you find anything strange, please email admin@chordie.com.


Almost Human   KISS

 
 Eb|-----------------------------------------------------------|
 Bb|-----------------------------------------------------------|
 Gb|-----------------------------------------------------------|
 Db|--------5h7--5h7--------7-5---------5h7--5h7----7-5--------|
 Ab|--0---0-------------5h7-------0---0-----------------7-5-3--|
 Eb|-----------------------------------------------------------|

 


 


 


 Rhythm Fig. 2


 

 
 Eb|-----------------------------------------------------------|
 Bb|-----------------------------------------------------------|
 Gb|-------4h5--4h5----4h5-7-5--------4h5--4h5----5-4-0-0------|
 Db|------------------------------------------------------2----|
 Ab|--0--------------------------0-----------------------------|
 Eb|-----------------------------------------------------------|

 


 


 


 Rhythm Fig. 3a


 

 
 Eb|-----------------------------------------------------------|
 Bb|--5----6----5---5-6-5----7----8---7-8-7--7-8-7-------------|
 Gb|--5----5----5---5-5-5----7----7---7-7-7--7-7-7-------------|
 Db|--5----7----5---5-7-5----7----9---7-9-7--7-9-7-------------|
 Ab|-----------------------------------------------------------|
 Eb|-----------------------------------------------------------|
 Eb|-----------------------------------------------------------|
 Bb|--5----6----5---5-6-5--------------------------------------|
 Gb|--5----5----5---5-5-5----4--4--4---------9~----------------|
 Db|--5----7----5---5-7-5----4--4--4---------9~----------------|
 Ab|-------------------------2--2--2----9h11-------------------|
 Eb|-----------------------------------------------------------|

 


 


 


 Rhythm Fig. 3b


 

 
 Eb|-----------------------------------------------------------|
 Bb|-----------------------------------------------------------|
 Gb|-----------------------------------------------------------|
 Db|--5----7----5---5-7-5----7----9---7-9-7--7-9-7-------------|
 Ab|--3----3----3---3-3-3----5----5---5-5-5--5-5-5-------------|
 Eb|-----------------------------------------------------------|
 Eb|-----------------------------------------------------------|
 Bb|-----------------------------------------------------------|
 Gb|-------------------------4--4--4---------------------------|
 Db|--5----7----5---5-7-5----4--4--4--------2~-----------------|
 Ab|--3----3----3---3-3-3----2--2--2----2h4--------------------|
 Eb|-----------------------------------------------------------|

 


 


 


 


 


 Rhythm Fig. 4


 

 
 Eb|-----------------------------------------------------------|
 Bb|-----------------------------------------------------------|
 Gb|-----------------------------------------------5-----------|
 Db|-------7--7--------7-5---------7--7----7-5-----5-----------|
 Ab|--0------------5h7--------0----------------7-5-3-----------|
 Eb|-----------------------------------------------------------|
 Eb|-----------------------------------------------------------|
 Bb|-----------------------------------------------------------|
 Gb|----------------4-----------------3------------------------|
 Db|----------------4-----------------3------------------------|
 Ab|----------------2-----------------1------------------------|
 Eb|-----------------------------------------------------------|

 


 


 


 Riff 1


 


 

 
 Eb|-----------------------------------------------------------|
 Bb|-----------------------------------------------------------|
 Gb|-----------------------------------------------------------|
 Db|-----------------------------------------------------------|
 Ab|--x\-------------------------------------------------------|
 Eb|--x\-------------------------------------------------------|

 


 Pick scrape


 


 


 Riff 2


 

 
 Eb|------5p3p0-5p3p0-5p3p0------------------------------------|
 Bb|-----------------------------------------------------------|
 Gb|-----------------------------------------------------------|
 Db|------------------------5b---------------------------------|
 Ab|-----------------------------------------------------------|
 Eb|-----------------------------------------------------------|

 


 Semi-harm - - - >


 


 


 Riff 3


 

 
 Eb|-----------------------------------------------------------|
 Bb|--12--12---(\)---------------------------------------------|
 Gb|--14b-14b~-(\)---------------------------------------------|
 Db|-----------------------------------------------------------|
 Ab|-----------------------------------------------------------|
 Eb|-----------------------------------------------------------|

 


 Sounds like a whammy bar


 


 


 


 Solo


 

 
 Eb|-----------------------------------------------------------|
 Bb|-----------------------------------------------------------|
 Gb|-----------------------------------------------------------|
 Db|-----------------------------------------------------------|
 Ab|-----------------------------------------------------------|
 Eb|------3b------------------------------r3-------------------|

 


 Slow bend and release (feedback)


 


 

 
 Eb|-----------------------------5-----------------------------|
 Bb|-----------15b^^---------------8-5-------------------------|
 Gb|--8~-------------------------------7-7-6-5--5--5-7---------|
 Db|-------------------------------------7-6-5--5--5-7---------|
 Ab|-----------------------x\----------------------------------|
 Eb|-----------------------x\----------------------------------|

 


 Pick scrape


 


 

 
 Eb|-----------------------------------------------------------|
 Bb|-----------------------------------------------------------|
 Gb|-----------------------------------------------------------|
 Db|-----------------------------------------------------------|
 Ab|--x/-------------------------------------------------------|
 Eb|--x/-------------------------------------------------------|

 


 Scrape side of pick against strings slowly and really dig in.


 


 

 
 Eb|-----12h15p12----12b^^-------8p5p0-------------------------|
 Bb|-/15----------15-------------------------------------------|
 Gb|-----------------------------------7-5h7--5-----3b---------|
 Db|--------------------------------------------7--------------|
 Ab|-----------------------3-----------------------------------|
 Eb|-----------------------------------------------------------|
 Eb|---------8-5-----------------------------------------------|
 Bb|-------------8-5-------------------------------------------|
 Gb|---5p3p0---------7-5-------4b^-----------------------------|
 Db|---------------------------4b^-----------------------------|
 Ab|-----------------------------------------------------------|
 Eb|----------------------3------------------------------------|


Important: The song above is NOT stored on the Chordie server. The original song is hosted at www.guitaretab.com. Chordie works as a search engine and provides on-the-fly formatting. Chordie does not index songs against artists'/composers' will. To remove this song please click here.

This song is displayed as text-only. Transposing and tuning is only available for chordpro-songs.
Rate #2 of 5 versions

Jango Player

Login - add to songbook

SHARE PAGE  




You need to log in to post comments