Guitar Tabs, Chords and Lyrics
Server problems seems to be fixed. Chordie has been experiencing problems with songs disappearing. These issues now seems to be fixed, but still verifying the fix. If you find anything strange, please email admin@chordie.com.


Turn On the Night   KISS

 
 Eb|------------------------------------------------|
 Bb|------------------------------------------------|
 Gb|--------6------4------7------9------9-----------|
 Db|--------7------6------7------9------9-----------|
 Ab|--0--0------------------------------------------|
 Eb|------------------------------------------------|

 


 P.M.


 


 

 
 Eb|------------------------------------------------|
 Bb|------------------------------------------------|
 Gb|--------11------9------7------11----9--9--------|
 Db|--------11------9------7------11----9--9--------|
 Ab|--9--9--9-------7------5------9-----7--7--------|
 Eb|------------------------------------------------|

 


 P.M.


 


 


 


 

 
 Eb|------------------------------------------------|
 Bb|------------------------------------------------|
 Gb|--------6------4------7------9------9-----------|
 Db|--------7------6------7------9------9-----------|
 Ab|--0--0------------------------------------------|
 Eb|------------------------------------------------|

 


 P.M.


 


 


 

 
 Eb|------------------------------------------------|
 Bb|------------------------------------------------|
 Gb|--9\-7----7----------11\-9----9-----------------|
 Db|--9\-7----7----------11\-9----9-----------------|
 Ab|--7\-5----5----------9\--7----7-----------------|
 Eb|------------------------------------------------|

 


 


 Rhythm Fig. 2 - Verse(Both Paul And Bruce)


 

 
 Eb|------------------------------------------------|
 Bb|--------2--------2--------2--------2--------2---|
 Gb|--------2--------2--------2--------2--------2---|
 Db|------------------------------------------------|
 Ab|--0--0-----0--0-----0--0-----0--0-----0--0------|
 Eb|------------------------------------------------|

 


 P.M. P.M. P.M. P.M. P.M.


 


 

 
 Eb|----------------------------------------0-------|
 Bb|--------2--------2--------2--------3----0----2--|
 Gb|--------2--------2--------2--------2---------2--|
 Db|-----------------------------------0------------|
 Ab|------------------------------------------------|
 Eb|--2--2-----2--2-----2--2-----2--2---------------|

 


 P.M. P.M. P.M. P.M.


 


 


 

 
 Eb|------------------------------------------------|
 Bb|----2--2--------2--------2--------2--------2----|
 Gb|----2--2--------2--------2--------2--------2----|
 Db|------------------------------------------------|
 Ab|----------0--0-----0--0-----0--0-----0--0-------|
 Eb|------------------------------------------------|

 


 P.M. P.M. P.M. P.M.


 


 

 
 Eb|----------------------------------------0h2p0---|
 Bb|--------2--------2--------2-------------0h2p0---|
 Gb|--------2--------2--------2---------------------|
 Db|------------------------------------------------|
 Ab|------------------------------------------------|
 Eb|--2--2-----2--2-----2--2-----2--2--0------------|

 


 P.M. P.M. P.M. P.M.


 


 Rhythm Fig. 3 - Pre-Chorus(Paul)


 

 
 Eb|------------------------------------------------|
 Bb|------------------------------------------------|
 Gb|--11------9------11------9------11----9---------|
 Db|--11------9------11------9------11----9---------|
 Ab|--9-------7------9-------7------9-----7---------|
 Eb|------------------------------------------------|

 


 Riff 1(Bruce) *BOTH PLAY AT THE SAME TIME*


 

 
 Eb|---------0------2------4------5p-4--------------|
 Bb|--2---------------------------------5-----------|
 Gb|------------------------------------------------|
 Db|------------------------------------------------|
 Ab|------------------------------------------------|
 Eb|------------------------------------------------|

 


 


 Rhythm Fig. 3con't(Both Paul And Bruce)


 

 
 Eb|------------------------------------------------|
 Bb|------------------------------------------------|
 Gb|--9\-7----7------------6**b^-r6-----------------|
 Db|--9\-7----7-------------------------------------|
 Ab|--7\-5----5------------------------5--4--2--0---|
 Eb|------------------------------------------------|

 


 P.M. - - ->


 


 Solo(Bruce)


 

 
 Eb|-----------------------------------------------------------------------|
 Bb|--14h15p14----15--14h15p14----15-14(15)--14h15p14----15--14h15p14~-----|
 Gb|-----------14--------------14---------------------14-------------------|
 Db|-----------------------------------------------------------------------|
 Ab|-----------------------------------------------------------------------|
 Eb|-----------------------------------------------------------------------|
 Eb|-----------------------------------------------------------------------|
 Bb|------17b---17b---17b~-------------------------------------------------|
 Gb|--------------------------4b-------------r4p2--------------------------|
 Db|----------------------------------------------4p2----------------------|
 Ab|-----------------------------------------------------------------------|
 Eb|-----------------------------------------------------------------------|
 Eb|-----------------------------------------------------------------------|
 Bb|-----------------------------------------------------------------------|
 Gb|------14----14-16b-16b-16-14----14-16b^^-----r16--14h16p14-------------|
 Db|-/16-----16------------------16----------------------------------------|
 Ab|-----------------------------------------------------------------------|
 Eb|-----------------------------------------------------------------------|
 Eb|-------------------------------------17----19----21b^-r21~-------------|
 Bb|-----14----15----17----17b~-------17----17----17-----------------------|
 Gb|--14----14----14----14-------------------------------------------------|
 Db|-----------------------------------------------------------------------|
 Ab|-----------------------------------------------------------------------|
 Eb|-----------------------------------------------------------------------|

 


 


 Outro solo(Bruce)


 


 

 
 Eb|--19b~-----19b-r19-17-19-17~-------------------------------------------|
 Bb|--------------------------------19~------17b~-----17-14----------------|
 Gb|--------------------------------------------------------16b^-16-14~----|
 Db|-----------------------------------------------------------------------|
 Ab|-----------------------------------------------------------------------|
 Eb|-----------------------------------------------------------------------|
 Eb|-----------------------------------------------------------------------|
 Bb|---------------------------------------------15-14(15)---14~-----------|
 Gb|------------------------------------------14---------------------------|
 Db|--14h16-14~---------------------------/16------------------------------|
 Ab|---------------12h14p12~-----12~---------------------------------------|
 Eb|-----------------------------------------------------------------------|
 Eb|------------17~-----21p17----22p17----22p21-17~------19b~----19b-r19---|
 Bb|------17-19---------------17-------17----------------------------------|
 Gb|--/18------------------------------------------------------------------|
 Db|-----------------------------------------------------------------------|
 Ab|-----------------------------------------------------------------------|
 Eb|-----------------------------------------------------------------------|
 Eb|--17~----17--17--17--16-16b^-r16---------------------------------------|
 Bb|---------------------------------17~-----------------------------------|
 Gb|-----------------------------------------------------------------------|
 Db|-----------------------------------------------------------------------|
 Ab|-----------------------------------------------------------------------|
 Eb|-----------------------------------------------------------------------|


Important: The song above is NOT stored on the Chordie server. The original song is hosted at www.guitaretab.com. Chordie works as a search engine and provides on-the-fly formatting. Chordie does not index songs against artists'/composers' will. To remove this song please click here.

This song is displayed as text-only. Transposing and tuning is only available for chordpro-songs.
Rate #2 of 3 versions

Login - add to songbook

SHARE PAGE  



You need to log in to post comments