Guitar Tabs, Chords and Lyrics
Server problems seems to be fixed. Chordie has been experiencing problems with songs disappearing. These issues now seems to be fixed, but still verifying the fix. If you find anything strange, please email admin@chordie.com.


Christine Sixteen   KISS

 
 Eb|----------------------------------------------|
 Bb|----------------------------------------------|
 Gb|----------------------------------------------|
 Db|----------------------------------------------|
 Ab|----------------------------------------------|
 Eb|--0--0------0--0------------------------------|

 


 


 


 Rhythm Fig. 2a


 

 
 Eb|----------------------------------------------|
 Bb|-------10-----9-------------------------------|
 Gb|----9--9------9-------------------------------|
 Db|----9--11--9--9-------------9-----7-----------|
 Ab|-------------------------5--5--5--5-----------|
 Eb|----------------------------------------------|
 Eb|----------------------------------------------|
 Bb|-------10----9~-------------------------------|
 Gb|----9--9-----9~-----7----7--------------------|
 Db|----9---------------7----7--------------------|
 Ab|--------------------5----5----6/-7--7---------|
 Eb|------------------------------4/-5--5--3b-0---|

 


 


 


 Rhythm Fig. 2b


 

 
 Eb|----------------------------------------------|
 Bb|-------------------------7--8----7------------|
 Gb|-------------------------7--7----7------------|
 Db|-------11-----9----------7--9----7------------|
 Ab|----7--7---7--7-------------------------------|
 Eb|----------------------------------------------|
 Eb|----------------------------------------------|
 Bb|----------------------------------------------|
 Gb|---------------------7----7-------------------|
 Db|-------11-----9------7----7----------7--5b----|
 Ab|----7--7---7--7------5----5----6/-7--------7--|
 Eb|-------------------------------4/-5-----------|

 


 


 


 Rhythm Fig. 3a


 

 
 Eb|----------------------------------------------|
 Bb|-------10----9-------------8----7-------------|
 Gb|-------9-----9-------------7----7-------------|
 Db|----9-------------------7---------------------|
 Ab|----------------------------------------------|
 Eb|----------------------------------------------|
 Eb|----------------------------------------------|
 Bb|----------------------------------------------|
 Gb|---------------------7----7-------------------|
 Db|-------11-----9------7----7----------7--5b----|
 Ab|----7--7---7--7------5----5----6/-7--------7--|
 Eb|-------------------------------4/-5-----------|

 


 


 


 Rhythm Fig. 3b


 

 
 Eb|----------------------------------------------|
 Bb|----------------------------------------------|
 Gb|----------------------------------------------|
 Db|-------11-----9-------------9-----7-----------|
 Ab|----7--7---7--7----------5--5--5--5-----------|
 Eb|----------------------------------------------|
 Eb|----------------------------------------------|
 Bb|----9--10----9--------------------------------|
 Gb|----9--9-----9------7----7--------------------|
 Db|----9--11----9------7----7--------------------|
 Ab|--------------------5----5----6/-7--7---------|
 Eb|------------------------------4/-5--5--3b-0---|

 


 


 


 Rhythm Fig. 4a


 

 
 Eb|----------------------------------------------|
 Bb|----9--10--10--10--9----7----7--8--8--8--7----|
 Gb|----9--9---9---9---9----7----7--7--7--7--7----|
 Db|----9--11--11--11--9----7----7--9--9--9--7----|
 Ab|----------------------------------------------|
 Eb|----------------------------------------------|
 Eb|----------------------------------------------|
 Bb|----------------------3--------3--------------|
 Gb|--2-------------------0--------2--------------|
 Db|--2-----4-----4p-2----0--------0--------------|
 Ab|-----0-----0--0-------------------------------|
 Eb|----------------------3-----------------------|
 Eb|----------------------------------------------|
 Bb|---9--10--10--10--9---7---7--8--8--8--7----3--|
 Gb|---9--9---9---9---9---7---7--7--7--7--7----0--|
 Db|---9--11--11--11--9---7---7--9--9--9--7----0--|
 Ab|----------------------------------------------|
 Eb|-------------------------------------------3--|
 Eb|----------------------------------------------|
 Bb|--------3--------2----------------------------|
 Gb|--------2--------2----------------------------|
 Db|--------0--------2----------------------------|
 Ab|-----------------0----------------------------|
 Eb|----------------------------------------------|

 


 


 


 Rhythm Fig. 4b


 

 
 Eb|----------------------------------------------|
 Bb|----------------------------------------------|
 Gb|----------------------------------------------|
 Db|-------11-----11--9----7-------9-----7-----2--|
 Ab|----7--7---7--7---7----5----5--5--5--5-----0--|
 Eb|----------------------------------------------|
 Eb|----------------------------------------------|
 Bb|---------------------3--------3---------------|
 Gb|---------------------0--------2---------------|
 Db|-------4-----4p-2----0--------0---------------|
 Ab|----0--0--0--0--------------------------------|
 Eb|---------------------3------------------------|
 Eb|----------------------------------------------|
 Bb|-------------------------------------------3--|
 Gb|-------------------------------------------0--|
 Db|------11-----11--9----7------9-----9--7----0--|
 Ab|---7--7---7--7---7----5---5--5--5--5--5-------|
 Eb|-------------------------------------------3--|
 Eb|----------------------------------------------|
 Bb|--------3--------2----------------------------|
 Gb|--------2--------2----------------------------|
 Db|--------0--------2----------------------------|
 Ab|-----------------0----------------------------|
 Eb|----------------------------------------------|

 


 


 


 Rhythm Fig. 5a


 

 
 Eb|----------------------------------------------|
 Bb|-------10----9-------------8----7-------------|
 Gb|-------9-----9-------------7----7-------------|
 Db|----9-------------------7---------------------|
 Ab|----------------------------------------------|
 Eb|----------------------------------------------|
 Eb|----------------------------------------------|
 Bb|-------10----9--------------------------------|
 Gb|-------9-----9------7----7--------------------|
 Db|----9---------------7----7----------7--5b-----|
 Ab|--------------------5----5----6/-7--------7---|
 Eb|------------------------------4/-5------------|

 


 


 


 


 Rhythm Fig. 5b


 

 
 Eb|----------------------------------------------|
 Bb|----------------------------------------------|
 Gb|----------------------------------------------|
 Db|-------11-----9-------------9-----7-----------|
 Ab|----7--7---7--7----------5--5--5--5-----------|
 Eb|----------------------------------------------|
 Eb|----------------------------------------------|
 Bb|----------------------------------------------|
 Gb|---------------------7----7-------------------|
 Db|-------11-----9------7----7----------------2--|
 Ab|----7--7---7--7------5----5----6/-7--7--------|
 Eb|-------------------------------4/-5--5--3b----|

 


 


 


 Rhythm Fig. 6a


 

 
 Eb|----------------------------------------------|
 Bb|-------10----9-------------8----7-------------|
 Gb|-------9-----9-------------7----7-------------|
 Db|----9-------------------7---------------------|
 Ab|----------------------------------------------|
 Eb|----------------------------------------------|
 Eb|----------------------------------------------|
 Bb|-------10----9--------------------------------|
 Gb|-------9-----9------7----7--------------------|
 Db|----9---------------7----7---------------9----|
 Ab|--------------------5----5----6/-7--7----9h---|
 Eb|------------------------------4/-5--5---------|

 


 


 


 Rhythm Fig. 6b


 

 
 Eb|----------------------------------------------|
 Bb|----------------------------------------------|
 Gb|----------------------------------------------|
 Db|-------11-----9-------------9-----7-----------|
 Ab|----7--7---7--7----------5--5--5--5-----------|
 Eb|----------------------------------------------|
 Eb|----------------------------------------------|
 Bb|----------------------------------------------|
 Gb|---------------------7----7-------------------|
 Db|-------11-----9------7----7-------------------|
 Ab|----7--7---7--7------5----5----6/-7--7--------|
 Eb|-------------------------------4/-5--5--3b-0--|

 


 


 


 Rhythm Fig. 6c


 

 
 Eb|----------------------------------------------|
 Bb|----------------------------------------------|
 Gb|----------------------------------------------|
 Db|-------11-----9-------------9-----7-----------|
 Ab|----7--7---7--7----------5--5--5--5-----------|
 Eb|----------------------------------------------|
 Eb|----------------------------------------------|
 Bb|----------------------------------------------|
 Gb|---------------------7----7-------------------|
 Db|-------11-----9------7----7-------------------|
 Ab|----7--7---7--7------5----5----6/-7--7--------|
 Eb|----------------------------------------3b-0--|

 


 


 


 Rhythm Fig. 7


 

 
 Eb|----------------------------------------------|
 Bb|------9--10----9------------7--8----8--7------|
 Gb|------9--9-----9------------7--7----7--7------|
 Db|------9--11----9------7-----7--9----9--7------|
 Ab|--11------------------7h-9--------------------|
 Eb|----------------------------------------------|
 Eb|----------------------------------------------|
 Bb|--------3----2------3----------3--------------|
 Gb|-----2--2----2------0----------2--------------|
 Db|-----2--4----2------0----------0----------9---|
 Ab|--0---------------------------------------9h--|
 Eb|--------------------3-------------------------|
 Eb|----------------------------------------------|
 Bb|------9--10----10--9----------7--8----8--7----|
 Gb|------9--9-----9---9----------7--7----7--7----|
 Db|------9--11----11--9----7-----7--9----9--7----|
 Ab|--11--------------------7h-9------------------|
 Eb|----------------------------------------------|
 Eb|----------------------------------------------|
 Bb|--3------3--------2---------------------------|
 Gb|--0------2--------2---------------------------|
 Db|--0------0--------2---------------------------|
 Ab|------------------0---------------------------|
 Eb|--3-------------------------------------------|

 


 


 


 


 Rhythm Fig. 8


 

 
 Eb|----------------------------------------------|
 Bb|----------------------------------------------|
 Gb|----------------------------------------------|
 Db|--9------9--9------9----9----9--9-------------|
 Ab|--9------9--9------9----9----9--9-------------|
 Eb|--7------7--7------7----7----7--7-------------|
 Eb|----------------------------------------------|
 Bb|-------10----10--9----10----10----10--9-------|
 Gb|-------9-----9---9----9-----9-----9---9-------|
 Db|-------11----11--9----11----11----11--9-------|
 Ab|----------------------------------------------|
 Eb|--0-------------------------------------------|
 Eb|----------------------------------------------|
 Bb|----------------------------------------------|
 Gb|----------------------------------------------|
 Db|--9------9--9------9----9---------------------|
 Ab|--9------9--9------9----9---------------------|
 Eb|--7------7--7------7----7---------------------|

 


 


 


 Riff 1


 


 

 
 Eb|----------------------------------------------|
 Bb|----------------------------------------------|
 Gb|--------12--14-14b-r14p12--14--12---------12--|
 Db|--12h14----------------------------14~--------|
 Ab|----------------------------------------------|
 Eb|----------------------------------------------|

 


 | |


 | |


 | |


 

 
 Eb|----------------------------------------------|
 Bb|----------------------------------------------|
 Gb|--------0---2-2b---r2-p0---2---0----------0---|
 Db|--0h-2-----------------------------2~---------|
 Ab|----------------------------------------------|
 Eb|----------------------------------------------|
 Eb|----------------------------------------------|
 Bb|----------------------------------------------|
 Gb|----------------------------------------------|
 Db|--14p12---------------------------------------|
 Ab|--------14---14p12\10---/14~------------------|
 Eb|----------------------------------------------|

 


 | |


 | |


 | |


 

 
 Eb|----------------------------------------------|
 Bb|----------------------------------------------|
 Gb|----------------------------------------------|
 Db|--2p-0----------------------------------------|
 Ab|--------2----2p-0-------2~--------------------|
 Eb|-------------------3--------------------------|

 


 


 


 Solo


 


 

 
 Eb|----------------------------------------------|
 Bb|----------------------------------------------|
 Gb|--4/----9~----------9/----14~-----------------|
 Db|----------------------------------------------|
 Ab|----------------------------------------------|
 Eb|----------------------------------------------|

 


 | |


 | |


 | |


 

 
 Eb|----------------------------------------------|
 Bb|----------------------------------------------|
 Gb|----------------------------------------------|
 Db|--4/----9~----------9/----14~-----------------|
 Ab|----------------------------------------------|
 Eb|----------------------------------------------|
 Eb|----------------------------------------------|
 Bb|----------------------------------------------|
 Gb|--11b^---11--9--7--9b--9--7--4~------2~-------|
 Db|----------------------------------------------|
 Ab|----------------------------------------------|
 Eb|----------------------------------------------|

 


 | |


 | |


 | |


 

 
 Eb|----------------------------------------------|
 Bb|----------------------------------------------|
 Gb|----------------------------------------------|
 Db|--11b^---11--9--7--9b--9--7--5~------4~-------|
 Ab|----------------------------------------------|
 Eb|----------------------------------------------|
 Eb|----------------------------------------------|
 Bb|----------------------------------------------|
 Gb|--4/----9~----------9/----14~-----------------|
 Db|----------------------------------------------|
 Ab|----------------------------------------------|
 Eb|----------------------------------------------|

 


 | |


 | |


 | |


 

 
 Eb|----------------------------------------------|
 Bb|----------------------------------------------|
 Gb|----------------------------------------------|
 Db|--2/----9~----------9/----14~-----------------|
 Ab|----------------------------------------------|
 Eb|----------------------------------------------|
 Eb|----------------------------------------------|
 Bb|-----------------------------15b~-------------|
 Gb|--11b^---11--9--12b---11--9-------------------|
 Db|----------------------------------------------|
 Ab|----------------------------------------------|
 Eb|----------------------------------------------|

 


 | |


 | |


 | |


 

 
 Eb|----------------------------------------------|
 Bb|----------------------------------------------|
 Gb|-----------------------------12b~-------------|
 Db|--11b^---11--9--12b---11--9-------------------|
 Ab|----------------------------------------------|
 Eb|----------------------------------------------|

 


 


 


 Outro solo


 


 

 
 Eb|----------------------------------------------|
 Bb|----------------------------------------------|
 Gb|--9b----r9------------------------------------|
 Db|-----------7b-----r7---6~----------6/---------|
 Ab|----------------------------------------------|
 Eb|----------------------------------------------|

 


 | |


 | |


 | |


 

 
 Eb|----------------------------------------------|
 Bb|----------------------------------------------|
 Gb|----------------------------------------------|
 Db|----------------------------------------------|
 Ab|--7b----r7------------------------------------|
 Eb|-----------5b-----r5---0----------------------|
 Eb|----------------------------------------------|
 Bb|----------------------------------------------|
 Gb|----------------------------------------------|
 Db|--7~-----------7\-----6~-----------6/---------|
 Ab|----------------------------------------------|
 Eb|----------------------------------------------|
 Eb|----------------------------------------------|
 Bb|----------------------------------------------|
 Gb|----------------------------------------------|
 Db|--7~------------------------------------------|
 Ab|----------------------------------------------|
 Eb|----------------------------------------------|
 Eb|----------------------------------------------| -|
 Bb|----------------------------------------------| |
 Gb|--4/----9~----------9/----14~-----------------| |
 Db|----------------------------------------------| |
 Ab|----------------------------------------------| |
 Eb|----------------------------------------------| |

 


 | | |


 | | |


 | | |


 

 
 Eb|----------------------------------------------| |
 Bb|----------------------------------------------| |
 Gb|----------------------------------------------| |
 Db|--2/----9~----------9/----14~-----------------| |
 Ab|----------------------------------------------| |
 Eb|----------------------------------------------| |

 


 |


 |


 |


 

 
 Eb|----------------------------------------------| |
 Bb|----------------------------------------------| |
 Gb|--14b----14--12--11--12--11-----9~------------| |
 Db|----------------------------12----------------| |
 Ab|----------------------------------------------| |
 Eb|----------------------------------------------| |

 


 | | |


 | | |


 | | |


 

 
 Eb|----------------------------------------------| |
 Bb|----------------------------------------------| |
 Gb|---------------------7---6--------------------| |
 Db|--7b-----7---5---4----------7---9~------------| |
 Ab|----------------------------------------------| |
 Eb|----------------------------------------------| |

 


 |


 Play twice


 |


 

 
 Eb|----------------------------------------------| |
 Bb|----------------------------------------------| |
 Gb|--4/----9~----------9/----14~-----------------| |
 Db|----------------------------------------------| |
 Ab|----------------------------------------------| |
 Eb|----------------------------------------------| |

 


 | | |


 | | |


 | | |


 

 
 Eb|----------------------------------------------| |
 Bb|----------------------------------------------| |
 Gb|----------------------------------------------| |
 Db|--2/----9~----------9/----14~-----------------| |
 Ab|----------------------------------------------| |
 Eb|----------------------------------------------| |

 


 |


 |


 |


 

 
 Eb|----------------------------------------------| |
 Bb|--------------------------------15b~----------| |
 Gb|--14b----14--12--11--12--11-------------------| |
 Db|----------------------------12----------------| |
 Ab|----------------------------------------------| |
 Eb|----------------------------------------------| |

 


 | | |


 | | |


 | | |


 

 
 Eb|----------------------------------------------| |
 Bb|--------------------------------8b~-----------| |
 Gb|---------------------7---6--------------------| |
 Db|--7b-----7---5---4----------7-----------------| |
 Ab|----------------------------------------------| |
 Eb|----------------------------------------------| -|
 Eb|----------------------------------------------|
 Bb|--------------------------------------15b-r15-|
 Gb|--4/-11\-9~---------9/-16\-14~----------------|
 Db|----------------------------------------------|
 Ab|----------------------------------------------|
 Eb|----------------------------------------------|

 


 | |


 | |


 | |


 

 
 Eb|----------------------------------------------|
 Bb|--------------------------------------10b-r10-|
 Gb|--------------------14\----9~-----------------|
 Db|--4/-----9~-----------------------------------|
 Ab|----------------------------------------------|
 Eb|----------------------------------------------|
 Eb|----------------------------------------------|
 Bb|----------------------------------------------|
 Gb|--14b----14--12--11--12--11-----9~------------|
 Db|----------------------------12----------------|
 Ab|----------------------------------------------|
 Eb|----------------------------------------------| 

 


 | |


 | |


 | |


 

 
 Eb|----------------------------------------------|
 Bb|----------------------------------------------|
 Gb|--11b~---11--9---7---7---6--------------------|
 Db|----------------------------7---9~------------|
 Ab|----------------------------------------------|
 Eb|----------------------------------------------|
 Eb|----------------------------------------------|
 Bb|--15b-r15--12~-----------15b-r15--------------|
 Gb|----------------------------------14~---------|
 Db|----------------------------------------------|
 Ab|----------------------------------------------|
 Eb|----------------------------------------------|

 


 | |


 | |


 | |


 

 
 Eb|----------------------------------------------|
 Bb|----------------------------------------------|
 Gb|---14b-r14-13~-----------14b-r14--------------|
 Db|---------------------------------12~----------|
 Ab|----------------------------------------------|
 Eb|----------------------------------------------|
 Eb|----------------------------------------------|
 Bb|--15b-r15--------------------------------15b~-|
 Gb|------------14b---14--12--11--12--11----------|
 Db|--------------------------------------12------|
 Ab|----------------------------------------------|
 Eb|----------------------------------------------|

 


 | |


 | |


 | |


 

 
 Eb|----------------------------------------------|
 Bb|-----------------------------------------10b~-|
 Gb|--14b-r14---11b^--11--9---7---7---6-----------|
 Db|--------------------------------------7-------|
 Ab|----------------------------------------------|
 Eb|----------------------------------------------|


Important: The song above is NOT stored on the Chordie server. The original song is hosted at www.guitaretab.com. Chordie works as a search engine and provides on-the-fly formatting. Chordie does not index songs against artists'/composers' will. To remove this song please click here.

This song is displayed as text-only. Transposing and tuning is only available for chordpro-songs.
Rate #1 of 2 versions

Login - add to songbook

SHARE PAGE  




You need to log in to post comments