Guitar Tabs, Chords and Lyrics
Update 25:10. 13:00. Site is back up running again. Songbooks are recovered. Woring on getting search back up..


I√Ę??ve Had Enough (Into the Fire)   KISS

 
 Eb|------------------------------------------------------------------|
 Bb|------------------------------------------------------------------|
 Gb|----------9----------7------------12----------7------9------------|
 Db|----------9----------7------------12----------7------9------------|
 Ab|----------7----------5------------10----------5------7------------|
 Eb|--0-0-0-0----0-0-0-0----0-0-0-0-------0-0-0-0---------------------|
 Eb|------------------------------------------------------------------|
 Bb|------------------------------------------------------------------|
 Gb|----------9----------7------------12----------7------7------------|
 Db|----------9----------7------------12----------7------7------------|
 Ab|----------7----------5------------10----------5------5------------|
 Eb|--0-0-0-0----0-0-0-0----0-0-0-0-------0-0-0-0---------------------|

 


 


 


 Rhythm Fig. 2a (P.M. on 6th throughout)


 


 

 
 Eb|------------------------------------------------------------------|
 Bb|------------------------------------------------------------------|
 Gb|----------9----------7------------12----------7------9------------|
 Db|----------9----------7------------12----------7------9------------|
 Ab|----------7----------5------------10----------5------7------------|
 Eb|--0-0-0-0----0-0-0-0----0-0-0-0-------0-0-0-0---------------------|
 Eb|------------------------------------------------------------------|
 Bb|------------------------------------------------------------------|
 Gb|----------9----------7------------12----------9------12-----------|
 Db|----------9----------7------------12----------9------12-----------|
 Ab|----------7----------5------------10----------7------10-----------|
 Eb|--0-0-0-0----0-0-0-0----0-0-0-0-------0-0-0-0---------------------| 

 


 


 


 Rhythm Fig. 2b (P.M. on 6th throughout)


 


 

 
 Eb|------------------------------------------------------------------|
 Bb|------------------------------------------------------------------|
 Gb|----------9----------7------------12----------7------9------------|
 Db|----------9----------7------------12----------7------9------------|
 Ab|----------7----------5------------10----------5------7------------|
 Eb|--0-0-0-0----0-0-0-0----0-0-0-0-------0-0-0-0---------------------|
 Eb|------------------------------------------------------------------|
 Bb|------------------------------------------------------------------|
 Gb|----------9----------7------------12----------9------9------------|
 Db|----------9----------7------------12----------9------9------------|
 Ab|----------7----------5------------10----------7------7------------|
 Eb|--0-0-0-0----0-0-0-0----0-0-0-0-------0-0-0-0---------------------| 

 


 


 


 Rhythm Fig. 3 (P.M. on 6th throughout)


 

 
 Eb|------------------------------------------------------------------|
 Bb|------------------------------------------------------------------|
 Gb|--7-------------------9----------7-----------7----------9----5/7--|
 Db|--7-------------------9----------7-----------7----------9----5/7--|
 Ab|--5-------------------7----------5-----------5----------7----3/5--|
 Eb|--------------0-0-0-0----0-0-0-0----0-0-0-0-----0-0-0-0-----------|
 Eb|------------------------------------------------------------------|
 Bb|---------------------5----------7-----------8----------7----------|
 Gb|--7----------------------5----------5-----------5----------5------|
 Db|--7--------------------------5----------5-----------5----------5--|
 Ab|--5---------------------------------------------------------------|
 Eb|------------------------------------------------------------------|
 Let ring - - - - - - - - - - - - - - - - - >
 Eb|------------------------------------------------------------------|
 Bb|--------------------------------------3-3-3-----------------------|
 Gb|--7-----------------------------------2-2-2----------4------------|
 Db|--7--------------5------5------5------0-0-0----------4------------|
 Ab|--5--------------3------2------0---------------------2------------|
 Eb|------------------------------------------------------------------|

 


 


 


 Rhythm Fig. 4 (P.M. on single notes)


 

 
 Eb|------------------------------------------------------------------|
 Bb|--7---5---------------7---5---------8---5---------------7---8-----|
 Gb|--5---5---------------5---5---------7---7---------------7---7-----|
 Db|--5---5---------------5---5---------7---7---------------7---7-----|
 Ab|-------------3--3--3----------------------------0--0--0-----------|
 Eb|------------------------------------------------------------------|
 < - - - - - - 2x - - - - - - > < - - - - - - - 2x - - - - - >
 Eb|------------------------------------------------------------------|
 Bb|--7---5---------------7---5---------------------------------------|
 Gb|--5---5---------------5---5-----4---------------------------------|
 Db|--5---5---------------5---5-----4-------4--4--4--4--4--4--4--4----|
 Ab|-------------3--3--3------------2-------2--2--2--2--2--2--2--2----|
 Eb|------------------------------------------------------------------|
 < - - - - - - 2x - - - - - > P.M. - - - - - - - - >

 


 


 


 Rhythm Fig. 5


 

 
 Eb|------------------------------------------------------------------|
 Bb|------------------------------------------------------------------|
 Gb|------------------------------------------------------------------|
 Db|--5------4------2------7------4------7----------------------------|
 Ab|--3------2------0------5------2------5----------------------------|
 Eb|------------------------------------------------------------------|

 


 


 


 Rhythm Fig. 6


 

 
 Eb|------------------------------------------------------------------|
 Bb|------------------------------------------------------------------|
 Gb|------------------------------------------------------------------|
 Db|--5------4------2------7------5------4------12----11----7---------|
 Ab|--3------2------0------5------3------2------10----9-----5---------|
 Eb|------------------------------------------------------------------|

 


 


 


 Rhythm Fig. 7a (P.M. on 6th throughout)


 

 
 Eb|------------------------------------------------------------------|
 Bb|------------------------------------------------------------------|
 Gb|----------9----------7------------12----------7------9------------|
 Db|----------9----------7------------12----------7------9------------|
 Ab|----------7----------5------------10----------5------7------------|
 Eb|--0-0-0-0----0-0-0-0----0-0-0-0-------0-0-0-0---------------------|
 Eb|------------------------------------------------------------------|
 Bb|------------------------------------------------------------------|
 Gb|----------9----------7------------12-------------7-7----7-7-------|
 Db|----------9----------7------------12-------------7-7----7-7-------|
 Ab|----------7----------5------------10-------------5-5----5-5-------|
 Eb|--0-0-0-0----0-0-0-0----0-0-0-0-------0-0-0-0-0-------------------|

 


 


 


 Rhythm Fig. 7b (P.M. on 6th throughout)


 

 
 Eb|------------------------------------------------------------------|
 Bb|------------------------------------------------------------------|
 Gb|----------9----------7------------12----------7------9------------|
 Db|----------9----------7------------12----------7------9------------|
 Ab|----------7----------5------------10----------5------7------------|
 Eb|--0-0-0-0----0-0-0-0----0-0-0-0-------0-0-0-0---------------------|
 Eb|------------------------------------------------------------------|
 Bb|------------------------------------------------------------------|
 Gb|----------9----------7------------12----------7-7----7-7----------|
 Db|----------9----------7------------12----------7-7----7-7----------|
 Ab|----------7----------5------------10----15\---5-5----5-5----------|
 Eb|--0-0-0-0----0-0-0-0----0-0-0-0---------15\-----------------------|

 


 


 


 Rhythm Fig. 8 (P.M. on 6th throughout)


 

 
 Eb|------------------------------------------------------------------|
 Bb|------------------------------------------------------------------|
 Gb|----------9----------7------------12----------7----9----9-9-9-9-9-|
 Db|----------9----------7------------12----------7----9----9-9-9-9-9-|
 Ab|----------7----------5------------10----------5----7----7-7-7-7-7-|
 Eb|--0-0-0-0----0-0-0-0----0-0-0-0-------0-0-0-0---------------------|

 


 


 Riff 1


 


 

 
 Eb|------------------------------------------------------------------|
 Bb|------------------------------------------------------------------|
 Gb|--5*(\)-----------------------------------------------------------|
 Db|------------------------------------------------------------------|
 Ab|------------------------------------------------------------------|
 Eb|------------------------------------------------------------------|

 


 Gradual lowering of bar


 


 


 Riff 2


 


 

 
 Eb|------------------------------------------------------------------|
 Bb|------------------------------------------------------------------|
 Gb|--12*(\)----------------------------------------------------------|
 Db|--12*(\)----------------------------------------------------------|
 Ab|------------------------------------------------------------------|
 Eb|------------------------------------------------------------------|

 


 Gradual lowering of bar


 


 


 Riff 3


 


 

 
 Eb|--8------10-----12-----10-----12------14--------------------------|
 Bb|--11b----12b----15b----13b----15b-----17b-------------------------|
 Gb|------------------------------------------------------------------|
 Db|------------------------------------------------------------------|
 Ab|------------------------------------------------------------------|
 Eb|------------------------------------------------------------------|

 


 


 


 Riff 4


 


 

 
 Eb|--8------10-----12-----10-----12------14-----15----17-----19(\)---|
 Bb|--11b----12b----15b----13b----15b-----17b----18b---20b------------|
 Gb|------------------------------------------------------------------|
 Db|------------------------------------------------------------------|
 Ab|------------------------------------------------------------------|
 Eb|------------------------------------------------------------------|

 


 


 


 Riff 5


 


 

 
 Eb|--12-12-12-12-12\-------------------------------------------------|
 Bb|------------------------------------------------------------------|
 Gb|------------------------------------------------------------------|
 Db|------------------------------------------------------------------|
 Ab|------------------------------------------------------------------|
 Eb|------------------------------------------------------------------|

 


 


 


 Intro solo


 

 
 Eb|---------------15p14p12-------12----------------------------------|
 Bb|-15b--15b~--------------15-13----15-13-12-15-13-12----13p12-------|
 Gb|---------------------------------------------------14-------14-12-|
 Db|------------------------------------------------------------------|
 Ab|------------------------------------------------------------------|
 Eb|------------------------------------------------------------------|
 Eb|------------------------------------------------------------------|
 Bb|--------15--------------------------------------------------------|
 Gb|--14b-------r14----12----14---14b---------------------------------|
 Db|--------------------------------------0(\)------------------------|
 Ab|------------------------------------------------------------------|
 Eb|------------------------------------------------------------------|
 Eb|------------------------------------------------------------------|
 Bb|--15p13p12-------13p12--------------------------------------------|
 Gb|-----------14-12-------14-12-16-14-12-11-14p12p11-----------------|
 Db|--------------------------------------------------14-12-----------|
 Ab|------------------------------------------------------------------|
 Eb|------------------------------------------------------------------|
 Eb|------------------------------------------------------------------|
 Bb|------------------------------------------------------------------|
 Gb|--12p11-------11--------------------------------------------------|
 Db|--------14-12----14-12-10-14p12p10--------------------------------|
 Ab|-----------------------------------14p12p10-10~-------------------|
 Eb|------------------------------------------------------------------|
 Eb|------------------------------------------------------------------|
 Bb|------------------------------------------------------------------|
 Gb|-----------------------------------------9h11h12------------------|
 Db|-----------------9h10h12---------9h10h12--------------------------|
 Ab|--7-9-10-9-10-12---------9h10h12-----------------12h14h15---------|
 Eb|------------------------------------------------------------------|
 Eb|------------------------------------------------------------------|
 Bb|--------------12-15--15b-----15b---15~----------------------------|
 Gb|-----------14-----------------------------------------------------|
 Db|--12h14h16--------------------------------------------------------|
 Ab|------------------------------------------------------------------|
 Eb|------------------------------------------------------------------|

 


 


 Solo


 

 
 Eb|--15-14-0-14-12-0-12-10-0-10-8-0-7---------------------------|
 Bb|-----------------------------------10-8----------------------|
 Gb|-------------------------------------------------------------|
 Db|-------------------------------------------------------------|
 Ab|-------------------------------------------------------------|
 Eb|-------------------------------------------------------------|
 Eb|--15-14-0-14-12-0-12-10-0-8-7--------------------------------|
 Bb|------------------------------10-8---------------------------|
 Gb|-------------------------------------------------------------|
 Db|-------------------------------------------------------------|
 Ab|-------------------------------------------------------------|
 Eb|-------------------------------------------------------------|
 Eb|--15-14-0-14-12-0-12-10-0-10-8-0-7---------------------------|
 Bb|-----------------------------------10-8----------------------|
 Gb|-------------------------------------------------------------|
 Db|-------------------------------------------------------------|
 Ab|-------------------------------------------------------------|
 Eb|-------------------------------------------------------------|
 Eb|------------------------------------------------7------------|
 Bb|-----------------------------------------8--10---------------|
 Gb|--------------5h7h9---------------7h9h11---------------------|
 Db|--------5h7h9--------------7h9h10----------------------------|
 Ab|--5h7h9-------------7h9h10-----------------------------------|
 Eb|-------------------------------------------------------------|
 Eb|--10b------12-14h15p14p12----12-15p12------------------------|
 Bb|--------------------------15----------15---------------------|
 Gb|-------------------------------------------------------------|
 Db|-------------------------------------------------------------|
 Ab|-------------------------------------------------------------|
 Eb|-------------------------------------------------------------|
 Eb|-------------------------------------------------------------|
 Bb|--13-12-----------------------3------------3-----------------|
 Gb|--------14(/)-14(/)~----0(\/)--------0(\/)---------4p2p0-----|
 Db|---------------------------------------------------------2p0-|
 Ab|-------------------------------------------------------------|
 Eb|-------------------------------------------------------------|
 Eb|----------------------------19------------19-17--------------|
 Bb|-------------------------17------------17--------------17----|
 Gb|--2r---0--------------16------------16--------------16-------|
 Db|----------2-2------------------------------------------------|
 Ab|-------------------------------------------------------------|
 Eb|-------------------------------------------------------------|
 Eb|--17-15-----------12-15-14--12-15p14p12----------------------|
 Bb|---------------12-----------------------15p13p12-------------|
 Gb|------------12-----------------------------------------------|
 Db|-------------------------------------------------------------|
 Ab|-------------------------------------------------------------|
 Eb|-------------------------------------------------------------|
 Eb|--12---------------------------------------------------------|
 Bb|-----15-12-15-12---------------------------------------------|
 Gb|-----------------14-12-14-12----12h14p12----------12---------|
 Db|-----------------------------16----------16-12-14----14(\)---|
 Ab|-------------------------------------------------------------|
 Eb|-------------------------------------------------------------|
 Eb|--5h7h8-------5h7h8/10-0-7-8-10-0-7h8h10/12-0----------------|
 Bb|--------5h7h8------------------------------------------------|
 Gb|-------------------------------------------------------------|
 Db|-------------------------------------------------------------|
 Ab|-------------------------------------------------------------|
 Eb|-------------------------------------------------------------|
 Eb|--8-10-12-0-8h10h12/14-0-10-12-14-0-10h12h14/15-0------------|
 Bb|-------------------------------------------------------------|
 Gb|-------------------------------------------------------------|
 Db|-------------------------------------------------------------|
 Ab|-------------------------------------------------------------|
 Eb|-------------------------------------------------------------|
 Eb|--12-14-15-0-12h14h15/17-0-14-15-17-0-14h15h17/19-0----------|
 Bb|-------------------------------------------------------------|
 Gb|-------------------------------------------------------------|
 Db|-------------------------------------------------------------|
 Ab|-------------------------------------------------------------|
 Eb|-------------------------------------------------------------|
 Eb|--17-19-20-0-19-20-22/24-22b---22----20b---20r-20~-----------|
 Bb|-------------------------------------------------------------|
 Gb|-------------------------------------------------------------|
 Db|-------------------------------------------------------------|
 Ab|-------------------------------------------------------------|
 Eb|-------------------------------------------------------------|


Important: The song above is NOT stored on the Chordie server. The original song is hosted at www.guitaretab.com. Chordie works as a search engine and provides on-the-fly formatting. Chordie does not index songs against artists'/composers' will. To remove this song please click here.

This song is displayed as text-only. Transposing and tuning is only available for chordpro-songs.
Rate #1 of 1 versions

Login - add to songbook

SHARE PAGE  



You need to log in to post comments