Guitar Tabs, Chords and Lyrics
Major upgrade!! After one year development the new version of Chordie is now online! Please give feedback.


Anything for My Baby   KISS

 
 Eb|--------------------------------------------------------------|
 Bb|--11--11--11--9----11h-12--11---------------------------------|
 Gb|--11--11--11--9----11h-13--11---------------------------------|
 Db|--11--11--11--9----11------11---------------------------------|
 Ab|--------------------------------------------------------------|
 Eb|--------------------------------------------------------------|

 


 


 


 Rhythm Fig. 2


 

 
 Eb|--------------------------------------------------------------|
 Bb|--------------------------------------------17----17----------|
 Gb|--16-16-16----------------------------------16----16----------|
 Db|--16-16-16----------------------------------14----14----------|
 Ab|--14-14-14----------------------------------------------------|
 Eb|--------------------------------------------------------------|

 


 


 


 Rhythm Fig. 3


 

 
 Eb|--------------------------------------------------------------|
 Bb|--------------------------------------------------------------|
 Gb|--16-16-16----------------------------------16----16----------|
 Db|--16-16-16----------------------------------16----16----------|
 Ab|--14-14-14----------------------------------14----14----------|
 Eb|--------------------------------------------------------------|
 Eb|--------------------------------------------------------------|
 Bb|--12----12--13--12--13--12----14----14--15--14--15--14--------|
 Gb|--12----12--12--12--12--12----14----14--14--14--14--14--------|
 Db|--12----12--14--12--14--12----14----14--16--14--16--14--------|
 Ab|--------------------------------------------------------------|
 Eb|--------------------------------------------------------------|
 < - - - - - - - - - - - - 2x - - - - - - - - - - - - - - - >
 Eb|--------------------------------------------------------------|
 Bb|----------12------------14------16----16--17----17--17----16--|
 Gb|----------12------------14------16----16--18----18--18----16--|
 Db|----------12------------14------16----16--16----16--16----16--|
 Ab|--12/-14------14-14/16------16--------------------------------|
 Eb|--------------------------------------------------------------|
 Eb|--------------------------------------------------------------|
 Bb|--16----------------------------------------------------------|
 Gb|--16----------------------------------------16----16----------|
 Db|--16----------------------------------------16----16----------|
 Ab|--------------------------------------------14----14----------|
 Eb|--------------------------------------------------------------|
 Eb|--------------------------------------------------------------|
 Bb|--12----12--13--12--13--12----14----14--15--14--15--14--------|
 Gb|--12----12--12--12--12--12----14----14--14--14--14--14--------|
 Db|--12----12--14--12--14--12----14----14--16--14--16--14--------|
 Ab|--------------------------------------------------------------|
 Eb|--------------------------------------------------------------|
 < - - - - - - - - - - - - 2x - - - - - - - - - - - - - - - >
 Eb|--------------------------------------------------------------|
 Bb|----------12------------14------16----------------------------|
 Gb|----------12------------14------16----------------------------|
 Db|----------12------------14------16----------------------------|
 Ab|--12/-14------14-14/16------16--14----------------------------|
 Eb|--------------------------------------------------------------|

 


 


 


 Rhythm Fig. 4


 

 
 Eb|--------------------------------------------------------------|
 Bb|--------------------------------------------------------------|
 Gb|--16-16-16--------------------------------16----16------------|
 Db|--16-16-16--------------------------------16----16------------|
 Ab|--14-14-14--------------------------------14----14------------|
 Eb|--------------------------------------------------------------|
 Eb|--------------------------------------------------------------|
 Bb|--12---------------15-----------------------------------------|
 Gb|--12---------------14----14-----------------------------------|
 Db|--12---------------12----14-----------------------------------|
 Ab|--10---------------------12-----------------------------------|
 Eb|--------------------------------------------------------------|
 < - - - - - - - - - - - - 2x - - - - - - - - - - - - - - - >
 Eb|--------------------------------------------------------------|
 Bb|--------------------------------------------------------------|
 Gb|--12---------------14----16-----------------------------------|
 Db|--12---------------14----16-----------------------------------|
 Ab|--10---------------12----14-----------------------------------|
 Eb|--------------------------------------------------------------|
 Eb|--------------------------------------------------------------|
 Bb|--------------------------------------------------------------|
 Gb|--16-16-16--------------------------------16----16------------|
 Db|--16-16-16--------------------------------16----16------------|
 Ab|--14-14-14--------------------------------14----14------------|
 Eb|--------------------------------------------------------------|
 Eb|--------------------------------------------------------------|
 Bb|--12---------------15-----------------------------------------|
 Gb|--12---------------14----14-----------------------------------|
 Db|--12---------------12----14-----------------------------------|
 Ab|--10---------------------12-----------------------------------|
 Eb|--------------------------------------------------------------|
 < - - - - - - - - - - - - 2x - - - - - - - - - - - - - - - >
 Eb|--------------------------------------------------------------|
 Bb|--------------------------------------------------------------|
 Gb|--12---------------14----16-----------------------------------|
 Db|--12---------------14----16-----------------------------------|
 Ab|--10---------------12----14-----------------------------------|
 Eb|--------------------------------------------------------------|

 


 


 


 Rhythm Fig. 5


 

 
 Eb|--------------------------------------------------------------|
 Bb|-----------7-------(9)--(9)-----------------------------------|
 Gb|-----------8--------9----9-------11----11---------------------|
 Db|--7/-9--9--9--------9----9--9----11----11---------------------|
 Ab|--7/-9--9-----------7----7--9----9-----9----------------------|
 Eb|--5/-7--7-------------------7---------------------------------|

 


 Let ring


 


 


 Rhythm Fig. 6


 

 
 Eb|--------------------------------------------------------------|
 Bb|----------------------------17----17--------11----11----------|
 Gb|--14/-16--16--/16---16--16--16----16--16----11----11----------|
 Db|--14/-16--16--/16---16--16--14----14--16----11----11----------|
 Ab|--12/-14--14--/14---14--14------------14----------------------|
 Eb|--------------------------------------------------------------|


Important: The song above is NOT stored on the Chordie server. The original song is hosted at www.guitaretab.com. Chordie works as a search engine and provides on-the-fly formatting. Chordie does not index songs against artists'/composers' will. To remove this song please click here.

This song is displayed as text-only. Transposing and tuning is only available for chordpro-songs.
Rate #2 of 5 versions

Login - add to songbook

SHARE PAGE  



You need to log in to post comments