Guitar Tabs, Chords and Lyrics
Update 25:10. 13:00. Site is back up running again. Songbooks are recovered. Woring on getting search back up..


In the Mirror   KISS

 
 Eb|------------------------------------------------------------|
 Bb|------------------------------------------------------------|
 Gb|---7\-----5-------------------------------------------------|
 Db|---------------3/5--5-3----5--3--0--------------------------|
 Ab|---5\-----3----3/5--5-3----5--3--0--------------------------|
 Db|---------------3/5--5-3----5--3--0--------------------------|

 


 


 Rhythm fig. 2


 


 

 
 Eb|------------------------------------------------------------|
 Bb|------------------------------------------------------------|
 Gb|--10/12-12-12-12\10-----------------------------------------|
 Db|------------------------------------------------------------|
 Ab|--8/-10-10-10-10\8------------------------------------------|
 Db|------------------------------------------------------------|

 


 


 Rhythm fig. 3a


 

 
 Eb|------------------------------------------------------------|
 Bb|------------------------------------------------------------|
 Gb|--7\-----5--------------------------------------------------|
 Db|--------------3/5--5-3----4--5------------------------------|
 Ab|--5\-----3----3/5--5-3----4--5------------------------------|
 Db|--------------3/5--5-3----4--5------------------------------|

 


 


 


 Rhythm fig. 3b


 

 
 Eb|------------------------------------------------------------|
 Bb|------------------------------------------------------------|
 Gb|--7\-----5--------------------------------------------------|
 Db|--------------3/5--5-3----2--1------------------------------|
 Ab|--5\-----3----3/5--5-3----2--1------------------------------|
 Db|--------------3/5--5-3----2--1------------------------------|

 


 


 Rhythm fig. 4 (let ring)


 

 
 Eb|------------------------------------------------------------|
 Bb|----------3-------------3---------------3-------------3-----|
 Gb|-------2-------2-----0-----0---------0-------0-----0-----0--|
 Db|------------------------------------------------------------|
 Ab|------------------3-------------1---------------0-----------|
 Db|--0---------------------------------------------------------|
 Eb|------------------------------------------------------------|
 Bb|----------3-------------3---------------3-------------3-----|
 Gb|-------0-------0-----0-----0---------0-------0-----0-----0--|
 Db|------------------------------------------------------------|
 Ab|------------------------------------------------------------|
 Db|--5---------------3-------------2---------------1-----------|
 Eb|------------------------------------------------------------|
 Bb|----------3-------------3---------------3-------------3-----|
 Gb|-------2-------2-----0-----0---------0-------0-----0-----0--|
 Db|------------------------------------------------------------|
 Ab|------------------3-------------1---------------0-----------|
 Db|--0---------------------------------------------------------|
 Eb|------------------------------------------------------------|
 Bb|----------3-------------3---------------3-------------------|
 Gb|-------0-------0-----0-----0---------0-------0--------------|
 Db|------------------------------------------------1----1------|
 Ab|------------------------------------------------1----1------|
 Db|--5---------------3-------------2---------------1----1------|

 


 


 


 


 Rhythm fig. 5


 

 
 Eb|------------------------------------------------------------|
 Bb|------------------------------------------------------------|
 Gb|------------------------------------------------------------|
 Db|------------------------------------------------------------|
 Ab|----------------------3~---0--3--4--5~----------------------|
 Db|--3~----4~----5~--------------------------3~----4~-----5~---|
 Eb|------------------------------------------------------------|
 Bb|------------------------------------------------------------|
 Gb|------------------------------------------------------------|
 Db|------------------------------------------------------------|
 Ab|---3~---0--3~---5~-----------------------3~---0--3--4--5~---|
 Db|----------------------3~----4~----5~------------------------|
 Eb|------------------------------------------------------------|
 Bb|------------------------------------------------------------|
 Gb|------------------------------------------------------------|
 Db|------------------------------------------------------------|
 Ab|----------------------------3~---0--3--4--5~----------------|
 Db|--3~---0--4~---0--5~-----0----------------------------------|

 


 


 


 Rhythm fig. 6 (let ring)


 

 
 Eb|------------------------------------------------------------|
 Bb|----------3-------------3---------------3-------------3-----|
 Gb|-------2-------2-----0-----0---------0-------0--------0-----|
 Db|------------------------------------------------------------|
 Ab|------------------3-----------------------------------------|
 Db|--0-----------------------------3---------------3/-5--------|
 Eb|-------------------------------------------3p-2-------------|
 Bb|----------3------------3------------3------------3----------|
 Gb|-------0------0--------0----------------2-----------2--0h-2-|
 Db|---------------------------------0--------------------------|
 Ab|------------------------------------------------------------|
 Db|--3--------------3/-5-------0-------------------------------|
 Eb|------------------------------------------------------------|
 Bb|------3----------3----------3-----------3--------3----------|
 Gb|---2-----2----0-----0----0-----0--------0-----0-----0-------|
 Db|------------------------------------------------------1---1-|
 Ab|------------3-----------------------------------------1---1-|
 Db|-0--------------------3-----------3/-5-----3----------1---1-|

 


 


 


 Rhythm fig. 7


 

 
 Eb|------------------------------------------------------------|
 Bb|------------------------------------------------------------|
 Gb|------------------------------------------------------------|
 Db|------------------------------------------------------------|
 Ab|------------------------------------3~-----4~-----5\--------|
 Db|--3~-----4~-----5\------------------------------------------|

 


 


 


 Fill 1a


 


 

 
 Eb|------------------------------------------------------------------------|
 Bb|------------------------------------------------------------------------|
 Gb|--7~------5/---7------7b^^---7b^^~--5/---7------7b^^---7b^^~--5/---7----|
 Db|------------------------------------------------------------------------|
 Ab|------------------------------------------------------------------------|
 Db|------------------------------------------------------------------------|
 Eb|------------------------------------------------------------------------|
 Bb|--5b^----5r~------------------------------------------------------------|
 Gb|-------------------------7~----------5/---7-----7b^^---7b^^~--5/---7----|
 Db|------------------------------------------------------------------------|
 Ab|------------------------------------------------------------------------|
 Db|------------------------------------------------------------------------|
 Eb|------------------------------------------------------------------------|
 Bb|----------------------------5b^----5r~----------------------------------|
 Gb|--7b^^---7b^^~--5/---7--------------------------------------------------|
 Db|------------------------------------------------------------------------|
 Ab|------------------------------------------------------------------------|
 Db|------------------------------------------------------------------------|

 


 


 Riff 1b


 


 

 
 Eb|------------------------------------------------------------------------|
 Bb|--6~---5/---6----8b---8b~----5/---6----8b---8b~---5/---6----8b-----8r~--|
 Gb|------------------------------------------------------------------------|
 Db|------------------------------------------------------------------------|
 Ab|------------------------------------------------------------------------|
 Db|------------------------------------------------------------------------|

 


 


 


 Riff 2


 

 
 Eb|------------13--10------------------------------------------------------|
 Bb|--------------------13--10----------------------------------------------|
 Gb|--12b~----------------------12b-12----10~-------------------------------|
 Db|------------------------------------------------------------------------|
 Ab|------------------------------------------------------------------------|
 Db|------------------------------------------------------------------------|

 


 


 


 Riff 3


 

 
 Eb|--20b-----20b-----20b~--------------------------------------------------|
 Bb|----------------------------------20b-20--18b^--------------------------|
 Gb|------------------------------------------------------------------------|
 Db|------------------------------------------------------------------------|
 Ab|------------------------------------------------------------------------|
 Db|------------------------------------------------------------------------|

 


 


 


 Solo (with wah-wah)


 

 
 Eb|------------------------------------------------------------------------|
 Bb|----------------------------------------------------13b~-------------10-|
 Gb|------------------------------------------------------------------12----|
 Db|------------------------------------------------------------------------|
 Ab|--x/---------------------(0)--------------------------------------------|
 Db|--x/---------------------(0)--------------------------------------------|

 


 pick scrape up strings (rings out when pick leaves strings)


 


 

 
 Eb|------------------------------------------------------------------------|
 Bb|-13p10-12p10----10----------------------12-12-12-12-10--12-12-12-12-10--|
 Gb|-------------13----13-12-10----10b-10~--12-12-12-12-10--12-12-12-12-10--|
 Db|----------------------------12------------------------------------------|
 Ab|------------------------------------------------------------------------|
 Db|------------------------------------------------------------------------|
 Eb|-------------------------------------------13b--------------------------|
 Bb|-10h12--10h12---10----12-12-12-12---------------------------------------|
 Gb|-10h12--10h12---10----12-12-12-12---------------------------------------|
 Db|---------------------------------12\------------------------------------|
 Ab|------------------------------------------------------------------------|
 Db|------------------------------------------------------------------------|

 


 keep bending ┬ątil you hit the ceiling


 


 

 
 Eb|--13b-13--10------13b--13~------10-----10-------------------------------|
 Bb|--------------13--------------------13----------------------------------|
 Gb|------------------------------------------------------------------------|
 Db|------------------------------------------------------------------------|
 Ab|------------------------------------------------------------------------|
 Db|------------------------------------------------------------------------|
 Eb|--13p12p10----------10----13p12p10-13p10----10--------------------------|
 Bb|-----------13p12p10----13----------------13----13p12p10----10-----------|
 Gb|--------------------------------------------------------12--------------|
 Db|------------------------------------------------------------------------|
 Ab|------------------------------------------------------------------------|
 Db|------------------------------------------------------------------------|
 Eb|------10-10--10-10--10-10--10-10----------------------------------------|
 Bb|--13b----13b----13b----13b----13b---------------------------------------|
 Gb|------------------------------------------------------------------------|
 Db|--------------------------------------0---------------------------------|
 Ab|-----------------------------------------3h5-3~---5h7p5\3h5p3-3~--------|
 Db|------------------------------------------------------------------------|

 


 unison bends


 


 

 
 Eb|------------------------------------------------------------------------|
 Bb|------------------------------------------------------------------------|
 Gb|-----------------------------------------------10b-10~------------------|
 Db|----------------5b-5--3~-----------10-10-12p10-----------10h12----------|
 Ab|----5h7p5\3--5----------------/12---------------------------------------|
 Db|------------------------------------------------------------------------|
 Eb|-------------------------------------------------13---------------------|
 Bb|------------13~-----13~-----13~-----13~-----10------13b-----17b---------|
 Gb|--10--12-12-----14~-----14~-----14~-------------------------------------|
 Db|------------------------------------------------------------------------|
 Ab|------------------------------------------------------------------------|
 Db|------------------------------------------------------------------------|

 


 very "nervous" vibrato


 


 

 
 Eb|-------------------------------------------------------13b---13**-10~---|
 Bb|--17b---17----15~-----13h15~--13----------------------------------------|
 Gb|----------------------------------14--12--10~---------------------------|
 Db|------------------------------------------------12\---------------------|
 Ab|------------------------------------------------------------------------|
 Db|------------------------------------------------------------------------|


Important: The song above is NOT stored on the Chordie server. The original song is hosted at www.guitaretab.com. Chordie works as a search engine and provides on-the-fly formatting. Chordie does not index songs against artists'/composers' will. To remove this song please click here.

This song is displayed as text-only. Transposing and tuning is only available for chordpro-songs.
Rate #1 of 3 versions

Jango Player

Login - add to songbook

SHARE PAGE  



You need to log in to post comments